>
 >
A Song For The Deaf 2

A Song For The Deaf 2 Bass Tabs

Queens Of The Stone Age - A Song For The Deaf 2 chords, tabs, tablatures, lyrics

Guitar lessons | Add/correct | Request | Top 50 tabs Artists:  A B C D E F G H I J K L M N O P Q R S T U V W X Y Z 0-9

A Song For The Deaf 2 Bass Tabs – Queens Of The Stone Age

CD, Sheet music, Poster

Do you like A Song For The Deaf 2? Share with your friends now
Bass TabsBass Tabs v2Bass Tabs v3
Tuning: low to high (C G C F)



p - pull off
h - hammer on
/ - slide up
~ - let ring


Intro

F|-----------------------------| x5
C|---------------------4-4-----|
G|---6p5----6p5----6p5-----6p5-|
C|0------0------0--------------|

F|-----------------------------| 
C|---------------------4-7-----|
G|---6p5----6p5----6p5-----6p5-|
C|0------0------0--------------|


Verse

F|-----------------------------| x9
C|---------------------4-4-----|
G|---6p5----6p5----6p5-----6p5-|
C|0------0------0--------------|

F|------------------------| 
C|---------------------4~-|
G|---6p5----6p5----6p5----|
C|0------0------0---------|


Chorus

F|--------------------------------------------|
C|--------------------------------------------|
G|-----------0-0-00---0-----------------------|
C|5-5-55-3-5--------5---3-3-33-0-3-3-3-33-0-3-|

F|-------------------------|
C|-------------------------|
G|-----------0-0-00/3-0----|
C|5-5-55-3-5------------3~-|


Bridge

F|-----------------------------| x2
C|---------------------4-4-----|
G|---6p5----6p5----6p5-----6p5-|
C|0------0------0--------------|


Interlude

F|----------------------------|----------------------7h88--|
C|----------------------------|--------------------------7-|
G|---065----065----065----5-6-|---065-5p0365-5p0365--------|
C|1p0----1p0----1p0----1p0----|1p0-------------------------|

F|------------------------------8-7------------------------------|
C|----------------------------7----------------------------------|
G|---0-6-5---0-6-5---0-6-56p5----------0-6-5---------------------|
C|1p0-----1p0-----1p0---------------1p0-----1p0-54-1p0-43-1p0-32-|


Verse

F|-----------------------------| x3
C|---------------------4-4-----|
G|---6p5----6p5----6p5-----6p5-|
C|0------0------0--------------|

F|------------------------| 
C|---------------------4~-|
G|---6p5----6p5----6p5----|
C|0------0------0---------|

F|--------------------------------|
C|--------------------------------|
G|---6-5--3--6-5-----6-5--3--6-5--|
C|0---------------0---------------|

F|-----------------------------| x3
C|---------------------4-4-----|
G|---6p5----6p5----6p5-----6p5-|
C|0------0------0--------------|

F|------------------------| 
C|---------------------4~-|
G|---6p5----6p5----6p5----|
C|0------0------0---------|


Chorus

F|--------------------------------------------|
C|--------------------------------------------|
G|-----------0-0-00---0-----------------------|
C|5-5-55-3-5--------5---3-3-33-0-3-3-3-33-0-3-|

F|--------------------------------------------|
C|--------------------------------------------|
G|-----------0-0-00/3-0-----------------------|
C|5-5-55-3-5------------3-3-33-0-3-3-3-33-0-3-|

F|--------------------------------------------|
C|--------------------------------------------|
G|-----------0-0-00---0-----------------3-5-6-|
C|5-5-55-3-5--------5---3-3-33-0-3-3-3-3------|

F|-------------------------|
C|-------------------------|
G|-----------0-0-00---0----|
C|5-5-55-3-5--------5---3~-|


Interlude

F|-----------------------------| x7
C|---------------------4-4-----|
G|---6p5----6p5----6p5-----6p5-|
C|0------0------0--------------|

F|------------------------| 
C|---------------------4~-|
G|---6p5----6p5----6p5----|
C|0------0------0---------|

F|----------------------------|----------------------7h88--|-
C|----------------------------|--------------------------7-|-
G|---065----065----065----5-6-|---065-5p0365-5p0365--------|-
C|1p0----1p0----1p0----1p0----|1p0-------------------------|-

-------------------------------8-7------------------------------| x2
-----------------------------7----------------------------------|
----0-6-5---0-6-5---0-6-56p5----------0-6-5---------------------|
-1p0-----1p0-----1p0---------------1p0-----1p0-54-1p0-43-1p0-32-|


Verse

F|---------------------------------------------------| x4
C|---------------------------------------------------|
G|-----0-1-3--0-----0-1-3--0-----0-1-3--0------0-1-3-|
C|1--5----------1--5---------1--5---------1--5-------|


Chorus

F|--------------------------------------------|
C|--------------------------------------------|
G|-----------0-0-00---0-----------------------|
C|5-5-55-3-5--------5---3-3-33-0-3-3-3-33-0-3-|

F|--------------------------------------------|
C|--------------------------------------------|
G|-----------0-0-00/3-0-----------------------|
C|5-5-55-3-5------------3-3-33-0-3-3-3-33-0-3-|

F|--------------------------------------------|
C|--------------------------------------------|
G|-----------0-0-00---0-----------------3-5-6-|
C|5-5-55-3-5--------5---3-3-33-0-3-3-3-3------|

F|-------------------------|
C|-------------------------|
G|-----------0-0-00---0----|
C|5-5-55-3-5--------5---3~-|



Wow that was hard! ...needs some practice to get the timing right!

There are a lot of variations during the Interlude you can try to figure 
them out for yourself (or simply play what you want :)

Please rate this Tab if you like it!





Comments


Popular Queens Of The Stone Age tabs & chords
Precious & Grace Bass Tabs
Song For The Deaf 2 Bass Tabs
You're So Vague Bass Tabs
Burn The Witch Chords
I Was A Teenage Hand Model Chords
Skin On Skin Drum Tabs
The Vampyre Of Time And Memory 1 Tabs
Turnin On The Screw 1 Tabs
You Think I Ain't Worth A Dollar, But I Feel Like A Millionaire Tabs
You Think I Ain't Worth A Doller Tabs


Song lyrics



↑ Back to top | Tablatures and chords are parodies/interpretations of the original songs. You may use it for private study, scholarship, research or language learning purposes only
© 2014 AZChords.com Contact us | Privacy policy | DMCA | Add/correct tabs | Request tabs | Top 50 tabs