>
 >
Avon 2

Avon 2 Bass Tabs

Queens Of The Stone Age - Avon 2 chords, tabs, tablatures, lyrics

Guitar lessons | Add/correct | Request | Top 50 tabs Artists:  A B C D E F G H I J K L M N O P Q R S T U V W X Y Z 0-9

Avon 2 Bass Tabs – Queens Of The Stone Age

CD, Sheet music, Poster

Do you like Avon 2? Share with your friends now
Bass TabsBass Tabs v2Bass Tabs v3Drum TabsTabsTabs v2Tabs v3Tabs v4Tabs v5Tabs v6

AVON (Bassline)
As recorded by Queens Of The Stone Age
(From the 1998 Album QUEENS OF THE STONE AGE)

	

Words by Joshua Homme Music by Queens Of The Stone Age

Gtr I (C F Bb Eb) - 'Josh (Bass)'

 Intro
  Q=129
 4/4
  Gtr I
  E E E E E E E E   E E E E E E E E   E E E E E E E E   E E E E E E E E
|-----------------|-----------------|-----------------|-----------------|
|---------9-------|---------9-------|---------9-------|---------9-------|
|-9---9-----------|-9---9-----------|-9---9-----------|-9---9-----------|
|---7---7---7-7-7-|---7---7---7-7-7-|---7---7---7-7-7-|---7---7---7-7-7-|


  E E E E E E E E   E E E E E E E E   E E E E E E E E   E E E E E E E E
|-----------------|-----------------|-----------------|-----------------|
|---------9-------|---------9-------|---------9-------|---------9-------|
|-9---9-----------|-9---9-----------|-9---9-----------|-9---9-----------|
|---7---7---7-7-7-|---7---7---7-7-7-|---7---7---7-7-7-|---7---7---7-7-7-|


  E E E E E E E E   E E  E E  E E E E
|-----------------|-------------------|
|---------9-------|----------10-------|
|-9---9-----------|-9---10------------|
|---7---7---7-7-7-|---7----8----8-8-8-|


   E E  E  E  E  E  E  E    E  E  E  E  E  E  E  E
|------------------------|-------------------------|
|------------12----------|-------------12----------|
|-10---12----------------|-12----12----------------|
|----8----10----10-10-10-|----10----10----10-10-10-|


  E E E E E E E E   E E  E E  E E E E
|-----------------|-------------------|
|---------9-------|----------10-------|
|-9---9-----------|-9---10------------|
|---7---7---7-7-7-|---7----8----8-8-8-|


   E E  E  E  E  E  E  E    E  E  E  E  E  E E E
|------------------------|-----------------------|
|------------12----------|-------------12--------|
|-10---12----------------|-12----12--------------|
|----8----10----10-10-10-|----10----10----10-9-8-|


    E E E E E E E E   E E E E E E E E
||------------------|-----------------|
||o-----------------|-----------------|
||o-----------------|-----------------|
||--7-7-7-7-7-7-7-7-|-8-8-8-8-8-8-8-8-|


   E  E  E  E  E  E  E  E    E  E  E  E  E  E E E
|-------------------------|-------------------------||
|-------------------------|------------------------o||
|-------------------------|------------------------o||
|-10-10-10-10-10-10-10-10-|-10-10-10-10-10-10-9-8---||


   Verse
    E E E E E E E E   E E E E E E E E
||------------------|-----------------|
||o-----------------|-----------------|
||o-----------------|-----------------|
||--7-7-7-7-7-7-7-7-|-8-8-8-8-8-8-8-8-|


   E  E  E  E  E  E  E  E    E  E  E  E  E  E E E   4x
|-------------------------|-------------------------||
|-------------------------|------------------------o||
|-------------------------|------------------------o||
|-10-10-10-10-10-10-10-10-|-10-10-10-10-10-10-9-8---||


 Chorus
  E E E E E E E E   E E E E E E E E   E E E E E E E E   E E E E E E E E
|-----------------|-----------------|-----------------|-----------------|
|-----------------|-----------------|-----------------|-----------------|
|-----------------|-----------------|-5-5-5-5-5-5-5-7-|-----------------|
|-7-7-7-7-7-7-7-7-|-6-6-6-6-6-6-6-6-|-----------------|-4-4-4-4-4-4-4-4-|


  E E E E E E E E   E E E E E E E E   E E E E E E E E   E E E E E E E E
|-----------------|-----------------|-----------------|-----------------|
|-----------------|-----------------|-----------------|-----------------|
|-----------------|-7-7-7-7-7-7-7-7-|-----------------|-----------------|
|-3-3-3-3-3-3-3-3-|-----------------|-7-7-7-7-7-7-7-7-|-8-8-8-8-8-8-8-8-|


 Pre-Verse
   E  E  E  E  E  E  E  E    E  E  E  E  E  E E E
|-------------------------|-----------------------|
|-------------------------|-----------------------|
|-------------------------|-----------------------|
|-10-10-10-10-10-10-10-10-|-10-10-10-10-10-10-9-8-|


  E E E E E E E E   E E E E E E E E
|-----------------|-----------------|
|-----------------|-----------------|
|-----------------|-----------------|
|-7-7-7-7-7-7-7-7-|-8-8-8-8-8-8-8-8-|


   E  E  E  E  E  E  E  E    E  E  E  E  E  E E E
|-------------------------|-----------------------|
|-------------------------|-----------------------|
|-------------------------|-----------------------|
|-10-10-10-10-10-10-10-10-|-10-10-10-10-10-10-9-8-|


   Verse
    E E E E E E E E   E E E E E E E E
||------------------|-----------------|
||o-----------------|-----------------|
||o-----------------|-----------------|
||--7-7-7-7-7-7-7-7-|-8-8-8-8-8-8-8-8-|


   E  E  E  E  E  E  E  E    E  E  E  E  E  E E E   4x
|-------------------------|-------------------------||
|-------------------------|------------------------o||
|-------------------------|------------------------o||
|-10-10-10-10-10-10-10-10-|-10-10-10-10-10-10-9-8---||


 Chorus
  E E E E E E E E   E E E E E E E E   E E E E E E E E   E E E E E E E E
|-----------------|-----------------|-----------------|-----------------|
|-----------------|-----------------|-----------------|-----------------|
|-----------------|-----------------|-5-5-5-5-5-5-5-7-|-----------------|
|-7-7-7-7-7-7-7-7-|-6-6-6-6-6-6-6-6-|-----------------|-4-4-4-4-4-4-4-4-|


  E E E E E E E E   E E E E E E E E   E E E E E E E E   E E E E E E E E
|-----------------|-----------------|-----------------|-----------------|
|-----------------|-----------------|-----------------|-----------------|
|-----------------|-7-7-7-7-7-7-7-7-|-----------------|-----------------|
|-3-3-3-3-3-3-3-3-|-----------------|-7-7-7-7-7-7-7-7-|-8-8-8-8-8-8-8-8-|


   E  E  E  E  E  E  E  E   E E E E E E E E
|-------------------------|-----------------|
|-------------------------|-----------------|
|-------------------------|-----------------|
|-10-10-10-10-10-10-10-10-|-4-4-4-4-4-4-4-4-|


   E  E  E  E  E  E  E  E   E E E E E E E E
|-------------------------|-----------------|
|-------------------------|-----------------|
|-10-10-10-10-10-10-10-10-|-7-7-7-7-7-7-7-7-|
|-------------------------|-----------------|


  E E E E E E Q    W          W          W
|----------------|----------|----------|------|
|----------------|----------|----------|------|
|----------------|----------|----------|------|
|-7-7-7-7-7------|----------|----------|------|


   Outro
    E E E E E E E E   E E E E E E E E
||------------------|-----------------|
||o-----------------|-----------------|
||o-----------------|-----------------|
||--7-7-7-7-7-7-7-7-|-7-7-8-8-8-8-8-8-|


  E E  E  E  E  E  E  E    E  E  E  E  E  E E E   4x
|-----------------------|-------------------------||
|-----------------------|------------------------o||
|-----------------------|------------------------o||
|-8-8-10-10-10-10-10-10-|-10-10-10-10-10-10-9-8---||


  E E E E E E E E   E E E E E E E E   E E E E E E E E   E E E E E E E E
|-----------------|-----------------|-----------------|-----------------|
|---------9-------|---------9-------|---------9-------|---------9-------|
|-9---9-----------|-9---9-----------|-9---9-----------|-9---9-----------|
|---7---7---7-7-7-|---7---7---7-7-7-|---7---7---7-7-7-|---7---7---7-7-7-|


  E E E E E E E E   E E E E E E E E   E E E E E E E E   E E E E E E Q
|-----------------|-----------------|-----------------|----------------*|
|---------9-------|---------9-------|---------9-------|---------9------*|
|-9---9-----------|-9---9-----------|-9---9-----------|-9---9----------*|
|---7---7---7-7-7-|---7---7---7-7-7-|---7---7---7-7-7-|---7---7--------*|



Duration Legend
---------------
W - whole; H - half; Q - quarter; E - 8th; S - 16th; T - 32nd; X - 64th; a - acciaccatura
+ - note tied to previous; . - note dotted; .. - note double dotted
Uncapitalized letters represent notes that are staccato (1/2 duration)
Irregular groupings are notated above the duration line
Duration letters will always appear directly above the note/fret number it represents the
duration for.  Duration letters with no fret number below them represent rests.  Multi-
bar rests are notated in the form Wxn, where n is the number of bars to rest for.  Low
melody durations appear below the staff

Tablature Legend
----------------
 h   - hammer-on
 p   - pull-off
 b   - bend
 pb  - pre-bend
 r   - bend release (if no number after the r, then release immediately)
 /\  - slide into or out of (from/to "nowhere")
 s   - legato slide
 S   - shift slide
 - natural harmonic
[n]  - artificial harmonic
n(n) - tapped harmonic
 ~   - vibrato
 tr  - trill
 T   - tap
 TP  - trem. picking
 PM  - palm muting
\n/  - tremolo bar dip; n = amount to dip
 \n  - tremolo bar down
 n/  - tremolo bar up
/n\  - tremolo bar inverted dip
 =   - hold bend; also acts as connecting device for hammers/pulls
 <> - volume swell (louder/softer)
 x   - on rhythm slash represents muted slash
 o   - on rhythm slash represents single note slash

Misc Legend
-----------
 |  - bar
||  - double bar
||o - repeat start
o|| - repeat end
*|  - double bar (ending)
 :  - bar (freetime)
 $  - Segno
 &  - Coda
Tempo markers -  = BPM(8/16=s8/s16), where s8 = swing 8ths, s16 = swing 16ths





Comments


Popular Queens Of The Stone Age tabs & chords
A Song For The Dead Bass Tabs
Broken Box Bass Tabs
No One Knows 5 Bass Tabs
I Never Came 3 Tabs
Leg Of Lamb 2 Tabs
Lightning Song Tabs
Like Clockwork Tabs
Precious And Grace Tabs
The Sky Is Falling Intro Tabs
You Cant Quit Me Baby Live Tabs


Song lyrics



↑ Back to top | Tablatures and chords are parodies/interpretations of the original songs. You may use it for private study, scholarship, research or language learning purposes only
© 2014 AZChords.com Contact us | Privacy policy | DMCA | Add/correct tabs | Request tabs | Top 50 tabs