» » »

Avon Tabs (ver.1)

Artists:  A B C D E F G H I J K L M N O P Q R S T U V W X Y Z # 

Avon Tabs (ver.1)

Queens Of The Stone Age
Rating:
4/5 (6 votes)

Hard to play? Try these video lessons and learn fast.
                Tuning: E (standard)

Once again i've chosen to tab a QOTSA son i an E standard
tuning. Normally Josh Tunes his guitar down 2 step into a
C but for us who don't want to retune our guitares during
a show this another way to do do it.

-------------------------------------------------------------
INTRO:
-------------------------------------------------------------

[Guitar I + II: Intro Part I  8x]
|-----------------|
|-----------------|
|-----------------|
|---------5-------|
|-5---5-----------|
|---3---3---3-3-3-|

[Guitar I + II: Intro Part II                                  2x]
|----------------------------------------------------------------|
|----------------------------------------------------------------|
|----------------------------------------------------------------|
|---------5--------------6---------------8---------------8-------|
|-5---5----------6---6-----------8---8-----------8---8-----------|
|---3---3--3-3-3---4---4---4-4-4---6---6---6-6-6---6---6---6-6-6-|

-------------------------------------------------------------
VERSE:
-------------------------------------------------------------


Play this before the singing begins.
This is not written down 100 % corect... you'll have to listen to the song to get the 
but im pretty sure that it's down strokes all of 'em

[Gtr. I+II][Guitar I + II: Main Riff                                      2x
|-------|  |---------------------------------------------------------------|
|-------|  |---------------------------------------------------------------|
|-------|  |---------------------------------------------------------------|
|-------|  |-5-5-5-5-5-5-5-5-6-6-6-6-6-6-6-6-8-8-8-8-8-8-8-8-8-8-8-8-8-7-6-|
|-8-7-6-|  |-5-5-5-5-5-5-5-5-6-6-6-6-6-6-6-6-8-8-8-8-8-8-8-8-8-8-8-8-8-7-6-|
|-6-5-4-|  |-3-3-3-3-3-3-3-3-4-4-4-4-4-4-4-4-6-6-6-6-6-6-6-6-6-6-6-6-6-5-4-|

Same thing when the singing begins:

[Guitar I + II: Main Riff                                      4x
|---------------------------------------------------------------|
|---------------------------------------------------------------|
|---------------------------------------------------------------|
|-5-5-5-5-5-5-5-5-6-6-6-6-6-6-6-6-8-8-8-8-8-8-8-8-8-8-8-8-8-7-6-|
|-5-5-5-5-5-5-5-5-6-6-6-6-6-6-6-6-8-8-8-8-8-8-8-8-8-8-8-8-8-7-6-|
|-3-3-3-3-3-3-3-3-4-4-4-4-4-4-4-4-6-6-6-6-6-6-6-6-6-6-6-6-6-5-4-|

-------------------------------------------------------------
CHORUS 1:
-------------------------------------------------------------

The same thing again. You'll have to listen to the song to ge the pattern.
Both chorus are allmost the same exept for that it's played like 1 ½ times the first time.
[Guitar I + II: Chorus                    ][Guitar I + II: Chourus         ]
|-----------------------------------------||-------------------------------|
|-----------------------------------------||-------------------------------|
|-----------------------------8--8---5--5-||-------------------------------|
|-5--5---4--4---8--8---2--2---8--8---5--5-||-5--5---4--4---8-8-8-8-8-8-8-8-|
|-5--5---4--4---8--8---2--2---6--6---3--3-||-5--5---4--4---8-8-8-8-8-8-8-8-|
|-3--3---2--2---6--6---0--0---------------||-3--3---2--2---6-6-6-6-6-6-6-8-|

-------------------------------------------------------------
Verse:
-------------------------------------------------------------

Just the same as before.. only differnce is that you only play the main riff once before 
singing starts

-------------------------------------------------------------
Chourus 2:
-------------------------------------------------------------

[Guitar I + II: Chorus                  2x]
|-----------------------------------------| |-----------|
|-----------------------------------------| |-----------|
|-----------------------------8--8---5--5-| |-----------|
|-5--5---4--4---8--8---2--2---8--8---5--5-| |-5-5-5-5-5-|
|-5--5---4--4---8--8---2--2---6--6---3--3-| |-5-5-5-5-5-|
|-3--3---2--2---6--6---0--0---------------| |-3-3-3-3-3-|

-------------------------------------------------------------
Short Drum solo
-------------------------------------------------------------

HIT IT SONNY BOY!!!

-------------------------------------------------------------
Solo part:
-------------------------------------------------------------

This is the part where the solo starts.. so be quiet!

[Guitar I + II: Intro Part II                                  2x]
|----------------------------------------------------------------|
|----------------------------------------------------------------|
|----------------------------------------------------------------|
|---------5--------------6---------------8---------------8-------|
|-5---5----------6---6-----------8---8-----------8---8-----------|
|---3---3--3-3-3---4---4---4-4-4---6---6---6-6-6---6---6---6-6-6-|

After playing this Guitar I starts playing the solo:

[Guitar I: Lead
|----------------------------------------------------------------|
|----------------------------------------------------------------|
|-3/SLIDE/10\7-------------------------10br--------10br----------|
|----------------------13------12br------------------------------|
|--------------10--11----11--------------------------------------|
|----------------------------------------------------------------|
|
[Guitar II: Rythm
|----------------------------------------------------------------|
|----------------------------------------------------------------|
|----------------------------------------------------------------|
|---------5--------------6---------------8---------------8-------|
|-5---5----------6---6-----------8---8-----------8---8-----------|
|---3---3--3-3-3---4---4---4-4-4---6---6---6-6-6---6---6---6-6-6-|

[Guitar I: Lead
|-------------------------------------------------------13-------|
|-8b------(r8)/9b-----------(r9)/11b----------(r11)--11----11----|
|-------------------------------------------------------------10-|
|----------------------------------------------------------------|
|----------------------------------------------------------------|
|----------------------------------------------------------------|
|
[Guitar II: Rythm
|----------------------------------------------------------------|
|----------------------------------------------------------------|
|----------------------------------------------------------------|
|---------5--------------6---------------8---------------8-------|
|-5---5----------6---6-----------8---8-----------8---8-----------|
|---3---3--3-3-3---4---4---4-4-4---6---6---6-6-6---6---6---6-6-6-|


-------------------------------------------------------------
ENDING:
-------------------------------------------------------------

At the end i goes like this...

[Guitar I + II: Intro Part I  6x]
|-----------------|
|-----------------|
|-----------------|
|---------5-------|
|-5---5-----------|
|---3---3---3-3-3-|

This track is so awsome yet so easy to play... go fix yourself and start playing this...


RATE IT DAMN YOU ;D
            
Hard to play? Try these video lessons and learn fast. | Correct




comments powered by Disqus
↑ Back to top | Tablatures and chords are parodies/interpretations of the original songs. You may use it for private study, scholarship, research or language learning purposes only