» » »

Queens Of The Stone Age, Avon Bass tabs (ver.1)

Artists:  A B C D E F G H I J K L M N O P Q R S T U V W X Y Z # 

Avon Bass tabs (ver.1)

Queens Of The Stone Age Tabs
Rating:
3/5 (3 votes)
Avon lessons Tabs too difficult? Try these video lessons and learn fast
                Album:Queens Of The Stone Age


This is a great song for someone fairly new to bass to learn. It's not hard at all but 
sounds awesome.
Intro

G|------------------|
D|---------5--------|
A|-5---5------------|
E|---3---3---3-3-3--| x 8

Intro Part 2

G|-------------------------------------------------------------------|
D|---------5---------------6----------------8---------------8--------|
A|-5---5-----------6---6------------8---8-----------8---8------------|
E|---3---3---3-3-3---4---4----4-4-4---6---6---6-6-6---6---6---6-6-6--| x 1

G|-------------------------------------------------------------------|
D|---------5---------------6----------------8---------------8--------|
A|-5---5-----------6---6------------8---8-----------8---8------------|
E|---3---3---3-3-3---4---4----4-4-4---6---6---6-6-6---6---6---6-5-4--| x 1

Verse (Main Riff)

G|----------------------------------------|
D|----------------------------------------|
A|----------------------------------------|
E|-33333333-44444444-666666666666-66-5-4--| x 5

Verse (Main Riff and Fill)

G|-------------------------------------------|
D|-----------------------------5-------------|
A|-------------------------------8-5-------5-|
E|-33333333-44444444-666666666-------6-3-1---| x1

Chorus

G|----------------------------------------------------------|
D|----------------------------------------------------------|
A|-----------------------------------------66666666-33333333|
E|-3--33-3333-2--22-2222-66666666-00000000------------------|

Play the verse 6 times again, and add in the fill the 3rd and 5th times you play it

Chorus 1

G|------------------------------------------------------------------------|
D|------------------------------------------------------------------------|
A|---------------------------------------66666666-33333333----------------|
E|--33333333-22222222-66666666-00000000-----------------------------------|

Chorus 2

G|-------------------------------------------------------------|
D|-------------------------------------------------------------|
A|-------------------------------------66666666-33333333-------|
E|-33333333-44444444-66666666-00000000--------------------33333|

Drum Solo

GIVE THE DRUMMER SOME

Guitar Solo

G|-------------------------------------------------------------------|
D|---------5---------------6----------------8---------------8--------|
A|-5---5-----------6---6------------8---8-----------8---8------------|
E|---3---3---3-3-3---4---4----4-4-4---6---6---6-6-6---6---6---6-5-4--| X4

Outro

Same as the intro part 2. Play it 8 times, and the last time end it on G.
            
Submit corrections

comments powered by Disqus
↑ Back to top | Queens Of The Stone Age Bass for Avon. Lyrics for acoustic guitar and electric guitar. Tablatures and chords are parodies/interpretations of the original songs. You may use it for private study, scholarship, research or language learning purposes only