» » »

Puddle Of Mudd, She Hates Me Bass tabs (ver.2)

Artists:  A B C D E F G H I J K L M N O P Q R S T U V W X Y Z # 

She Hates Me Bass tabs (ver.2)

Puddle Of Mudd Tabs
 Rating:
4/5 (4 votes)
She Hates Me lessons Tabs too difficult? Try these video lessons and learn fast
                Country: Holland/Netherlands

verse (you can also play this with the guitar intro)
G|-------------------|		Play it a 'lil bit like
D|-----7--7----9-9-9-|		you play Summer Lovin'(Grease)
A|-7--7----9-9-------|		Especially the first 4 notes..
E|-------------------|

pre-chorus ("In a trap, trip I can't grip..")
G|-----------------------|
D|-----7-7-------9-9-9-9-|
A|-7-7-----9-9-9---------|
E|-----------------------|

1st chorus ("She ***ing hates me..") (soft part)
G|-----------------------|
D|-----7-7-------9-9-9-9-|
A|-7-7-----9-9-9---------|
E|-----------------------|

verse
G|-------------------|
D|-----7--7----9-9-9-|
A|-7--7----9-9-------|
E|-------------------|

pre-chorus ("In a trap, trip I can't grip..")
G|-----------------------|
D|-----7-7-------9-9-9-9-|
A|-7-7-----9-9-9---------|
E|-----------------------|

2nd chorus ("She ***ing hates me..") (distored part)
G|--------------------|
D|------7777------999-|
A|-7777------9999-----|
E|--------------------|

verse
G|-------------------|
D|-----7--7----9-9-9-|
A|-7--7----9-9-------|
E|-------------------|

Fill (see where you use it)
G|---------------|
D|---------------|
A|-7777777777777-|
E|---------------|

3rd chorus
G|--------------------|
D|------7777------999-|
A|-7777------9999-----|
E|--------------------|

outro
G|-----------------------|
D|-----7-7-------9-9-9-9-|
A|-7-7-----9-9-9---------|
E|-----------------------|

Lot of these parts are the same but with another name..
You can play this song with just 2 rythms.. But I'd love to variate..
This is the way I play it in my band, and it gives the
song just a lil' bit more fun to play..
It's also easy to sing along with it because you can variate the whole song..

Here is another tab which is for real.. 
But if you really wanna know the secret..
Their bassist plays the same tune the whole time,
I just thought some things up to make it a lot more fun..

verse (You can play this for the whole song)
G|-----------------|
D|-----77------999-|
A|-77------99------|
E|-----------------|

(soft chorus is the same as verse)

chorus (distored)
G|---------------|
D|---------------|
A|----00-----222-|
E|-00----22------|

Fill
G|---------------|
D|---------------|
A|-7777777777777-|
E|---------------|
            
Submit corrections

comments powered by Disqus
↑ Back to top | Puddle Of Mudd Bass for She Hates Me. Lyrics for acoustic guitar and electric guitar. Tablatures and chords are parodies/interpretations of the original songs. You may use it for private study, scholarship, research or language learning purposes only