>
 >
She Fucking Hates Me

She Fucking Hates Me Guitar Tabs

Puddle Of Mudd - She Fucking Hates Me chords, tabs, tablatures, lyrics

Guitar lessons | Add/correct | Request | Top 50 tabs Artists:  A B C D E F G H I J K L M N O P Q R S T U V W X Y Z 0-9

She Fucking Hates Me Guitar Tabs – Puddle Of Mudd

CD, Sheet music, Poster

Do you like She Fucking Hates Me? Share with your friends now
TabsTabs v2Tabs v3
Key: pb: pre bend
     b: bend
     gb: gradual bend
     >: up stroke
Intro:

    F      >         Bb5     >                G           C5             >
e|-------------------------------------------------------------------------------|
B|-------------------------------------------------------------------------------|
G|---------2-----------------3--------------------4----------------------5-------|
D|---------3-----------------3--------------------5----------------------5-------|
A|---------3----0----1--------------0---------5---5----0----3--------3--------0--|
E|---1----------------------------------------3----------------------------------|
The key to this is to use an upstroke on the points i have indicated with a > lifting your
fingers off immedietly to cut the chords off.

Repeat Intro until verse 3 when you plam mute the chorus.

solo:
WITH WAH WAH PEDAL FULLY DEPRESSED
left panned guitar
e|--------------------------------------------------------------------------------------|
B|--------------------------------------------------------------------------------------|
G|------------3--3--3--3----3---5---5b--5~-----------3--3--3--3--4--4--4--5~--5b-5s14---|
D|--3--3--3--3------------5----5-----------3--3--3--3-----------------------------------|
A|--------------------------------------------------------------------------------------|
E|--------------------------------------------------------------------------------------|

right panned guitar

e|----------------------------------------------------------------------------------------------------|
B|------------------------15--15----15----17b17-17-17-------------15-15-15-15---15-15-17gb17-17pn(18)-|
G|----------15-----15--15-15--15----15----17b17-17-17-------------15-15-15-15---15-15-17gb17-17pb(19)-|
D|--15--15--15--15---------------17----17-------------15-15-15-15-------------17---17-----------------|
A|----------------------------------------------------------------------------------------------------|
E|----------------------------------------------------------------------------------------------------|

Intro:  F Bb5 G C5 x2
(see figure 1)

          F     Bb5   G               C5
Verse 1 : Met a girl  thought she was grand
          F       Bb5        G          C5
          Fell in love, found out first hand
         F     	Bb5     G       C5
          Went well 4 a week of two
          F       Bb5  G    C5
          Then it all came un-glued


Verse 2: Im in a trap i cant grip
         Never thought id be the one who'd slip
         Then i stated to realise 
         I was livin one big lie

                     F     Bb5  G  C5
Chorus:  She ***in hates me,       trust
                     F     Bb5      G     C5
         She ***in hates me,       la la love
         F          Bb5             G     C5   
         I tried too hard  and she tore my feelings
               F        Bb5   G          C5
         Like i had none  and ripped them away

Verse 3: She was queen 4 about an hour
         After that *** got sour
         She took all i ever had
         No sign of guilt no feeling of bad, no

Verse 4: same as verse 2 (distorted)


Chorus: distorted

Verse 5; Thats my story, as u see
         Learned my lesson and so did she
         Now is over and im glad
         'cos im a fool 4 all ive said

Chorus  
        F     Bb5    G        C5
Outro:  La la la a la la la la, trust
        F     Bb5    G        C5
        la la la a la la la la, trust
        F     Bb5                G       C5   
        la, la, la, la, and she tore my feelings like
         F         Bb5   G    C5           F
        I had none,             She ***ing hates me

              (Rpt. To fade)




Chords:


F:   1332xx
Bb5: x133xx
G:   3554xx
C5:  x355xx





Comments


Popular Puddle Of Mudd tabs & chords
Already Gone Bass Tabs
Hates Me Bass Tabs
Heel Over Head Chords
She Hates Me Chords
Psycho Drum Tabs
Away From Me Tabs
Bring Me Down 1 Tabs
She Hates Me 3 Tabs
Stoned 1 Tabs
We Dont Have To Look Back Now Ukulele


Song lyrics



↑ Back to top | Tablatures and chords are parodies/interpretations of the original songs. You may use it for private study, scholarship, research or language learning purposes only
© 2014 AZChords.com Contact us | Privacy policy | DMCA | Add/correct tabs | Request tabs | Top 50 tabs