» » »

Puddle Of Mudd, She Hates Me Tabs (ver.3)

Artists:  A B C D E F G H I J K L M N O P Q R S T U V W X Y Z # 

She Hates Me Tabs (ver.3)

Puddle Of Mudd Tabs
 Rating:
4/5 (4 votes)
She Hates Me lessons Tabs too difficult? Try these video lessons and learn fast
1
                Legend:
h= hammer on
p= pull off
/ = slide

hey people im back, this is all mine too
(guitar 1)
   E      Am        F#    Bsus2                        
E----------------------------------------l   
B----------------------------------------l   
G-----1--------2----------------4--------l } don't let them ring 
D-----2--------2------4---------4--------l }   "     "   "     "  
A-----------0~~---0---4--0-2~~2----0-----l   
E--0~~----0---------2~~------------------l   

  (guitar 2 )   (licks during verse)
E-------------------l-----------------------------------
B-------------------l-----------------------------------
G-------------------l-----------------------------------
D----9h11p9---------l---9h11p9--------11--9-------------
A-------------------l-----------------------------11--9-
E-------------------l-----------------------------------

Chorus ( with dist)
E------------------------------------------------------------
B------------------------------------------------------------
G--------------------------------4-4-4-4---------------------
D----2-2-2-2---7-7-7-7--4-4-4-4--4-4-4-4---------------------           (4x)
A ---2-2-2-2---7-7-7-7--4-4-4-4--2-2-2-2---------------------
E----0-0-0-0---5-5-5-5--2-2-2-2------------------------------

Verse (Guitar 1 continues main riff, guitar 2does as shown)
(all palm muted)
E--------------------------------------------
B--------------------------------------------
G-----------------------------4-4-4-4--------
D--2-2-2-2--7-7-7-7--4-4-4-4--4-4-4-4--------
A--2-2-2-2--7-7-7-7--4-4-4-4--2-2-2-2--------
E--0-0-0-0--5-5-5-5--2-2-2-2-----------------

Guitar Solo ( w/ wah-wah)

e|---------------------------| 
B|---------------------------| 
G|---------------------------| 
D|---------7-7-7-7---7---9~--| 
A|-7-7-7-7---------9---9-----| 
E|---------------------------| 

outro is just the same chords with a butt load of distortion

Lyrix:
Met a girl, thought she was grand
fell in love, found out first hand
went well for a week or two
then it all came unglued

in a trapp trip I can't grip
never thought I'd be the one who'd slip
then I started to realize
I was living one big lie

She ***ing hates me
trust
she ***ing hates me
la la la love
I tried too hard
and she tore my feelings like I had none
and ripped them away

She was queen for about an hour
after that *** got sour
she took all I ever had
no sign of guilt
no feeling of bad, no

In a trapped trip I can't grip 
never thought i'd be the one who'd slip
then I started to realize
I was living one big lie

[Chorus]

that's my story, as you see
learned my lesson and so did she
now it's over and i'm glad 
'cause i'm a fool for all i've said

[Chorus]

la la la la la la la la la love
Trust
la la la la la la la la la love
Trust
and she tore my feelings like I had none
she ***ing hates me
            
Submit corrections

comments powered by Disqus
↑ Back to top | Puddle Of Mudd Tabs for She Hates Me. Lyrics for acoustic guitar and electric guitar. 1 Tablatures and chords are parodies/interpretations of the original songs. You may use it for private study, scholarship, research or language learning purposes only