» » »

Puddle Of Mudd, She Hates Me Bass tabs (ver.1)

Artists:  A B C D E F G H I J K L M N O P Q R S T U V W X Y Z # 

She Hates Me Bass tabs (ver.1)

Puddle Of Mudd Tabs
 Rating:
4/5 (4 votes)
She Hates Me lessons Tabs too difficult? Try these video lessons and learn fast
                Tunning- one half step down
(low to high) (Eb, Ab, Db, Gb)

1st Pre-Chorus  (0:27)
Gb--------------------------------------------------------------
Db-----------------------------------------------------------3--  X2
Ab-------1---1--------3~---3-0---------1---1--------3~-3-3/5----
Eb-1---1--------3-3--------------1---1--------3-1-3-------------

1st Chorus  (0:44)
Gb---------------------------------------------------------------------
Db---------------------------------------------------------------------
Ab----------1-1---1--------3~-3-3-0-----------1-1---1--------3~-3-3-0--
Eb-1-1---1-----------3-3-------------1-1---1-----------3-1-3-----------

Gb-----------------------------------------------------------------------
Db----------------------------------3------------------------------------
Ab----------1-1---0--------3~-3-3/5-------------1-1---0----2---3~-3-3-0--
Eb-1-1---1-----------3-3---------------1-1---1-----------3---3-----------

2nd Verse  (1:01)
Gb--------------------------------------------
Db--------------------------------------------  X4
Ab------------1--1----1----------3~--3--3--0--
Eb-1--1----1-------------3--3-----------------

2nd Pre-Chorus  (1:19)
Gb--------------------------------------------
Db--------------------------------------------  X4
Ab------------1--1----1----------3~--3--3--0--
Eb-1--1----1-------------3--3-----------------

2nd Chorus  (1:36)
Gb-------------------------------------------------------------------
Db-------------------------------------------------------------------
Ab---------1-1-1-1-------3-3-3-3-3----------1-1-1-1-------3-3-3-3-3--
Eb-1-1-1-1---------3-3-3------------1-1-1-1---------3-1-3------------

Guitar Solo  (1:54)
Gb--------------------------------------------
Db--------------------------------------------  X4
Ab------------1--1----1----------3~--3--3--0--
Eb-1--1----1-------------3--3-----------------

3rd Verse  (2:11)
Gb------------------------------------------------------------------------------
Db------------------------------------------------------------------------------
Ab------------1--1----1----------3~--3--3--0-------------1--1----1----------3~--
Eb-1--1----1-------------3--3-----------------1--1----1-------------3--3--------

Gb--------------------------------------
Db--------------------------------------
Ab---------1-1-1-1-------3--3-3--3/5-3--
Eb-1-1-1-1---------3-3-3----------------

3rd Chorus  (2:28)
Gb----------------------------------
Db----------------------------------  X4
Ab---------1-1-1-1-------3-3-3-3-3--
Eb-1-1-1-1---------3-3-3------------

Outro  (2:46)
Gb-------------------------------------------------------
Db-------------------------------------------------------
Ab----------1-1---1--------3--3-3-3-3-----------1-1---1--
Eb-1-1---1-----------3-3-3-------------1-1---1-----------

Gb-----------------------------------------------------
Db-----------------------------------------------------
Ab-------3-3-3-3-3-----------1-1---1--------3-3-3-3-3--
Eb-3-1-3------------1-1---1-----------3-3-3------------

Gb----------------------------------------------------
Db----------------------------------------------------
Ab----------1-1-1-1--------3--3-3-3-3\----------------
Eb-1-1-1-1-----------3-3-3------------1--1~~~~----1---

Thats it, have fun, its pretty easy.
GW. Please rate this tab, Thanks.
            
Submit corrections

comments powered by Disqus
↑ Back to top | Puddle Of Mudd Bass for She Hates Me. Lyrics for acoustic guitar and electric guitar. Tablatures and chords are parodies/interpretations of the original songs. You may use it for private study, scholarship, research or language learning purposes only