>
 >
Control

Control Guitar Tabs

Puddle Of Mudd - Control chords, tabs, tablatures, lyrics

Guitar lessons | Add/correct | Request | Top 50 tabs Artists:  A B C D E F G H I J K L M N O P Q R S T U V W X Y Z 0-9

Control Guitar Tabs – Puddle Of Mudd

CD, Sheet music, Poster

Do you like Control? Share with your friends now
Bass TabsBass Tabs v2ChordsTabsTabs v2Tabs v3Tabs v4Tabs v5Tabs v6Ukulele
ontrol-Puddle Of Mudd
Come Clean

C# (down a minor 3rd)
C# F# B E G# C#

Fig 1. 

e------------------------------------------------------------
b------------------------------------------------------------
g------------------------------7--7-7------------------------
d-2--2-2-2--2-5--5-5-5-5-4-----7--7-7----7--7-7-7-7-5---5----
a-2--2-2-2--2-5--5-5-5-5-4-----5--5-5----7--7-7-7-7-5---5----
e-0--0-0-0--0-3--3-3-3-3-2-0-0---------0-5--5-5-5-5-3---3----

e------------------------------------------------------------
b------------------------------------------------------------
g----------------------------7--7-7--------------------------
d-2--2-2--2-5--5-5-5-5-4-----7--7-7----7--7-7-7-7-5----5-----
a-2--2-2--2-5--5-5-5-5-4-----5--5-5----7--7-7-7-7-5----5-----
e-0--0-0--0-3--3-3-3-3-2---0---------0-5--5-5-5-5-3----3-----

Riff A

e------------------------------------------------------------
b------------------------------------------------------------
g-7/9-9-9-9\7-711--12-12-12-12-12-14-14\9-911111111\9-7--7---
d-x-x-x-x-x-x-x-x---x--x--x--x--x--x--x-x-x-x-x-x-x-x-x--x---
a-5/7-7-7-7\5-5-9--10-10-10-10-10-12-12\7-7/9-9-9-9\7-5--5---
e------------------------------------------------------------

e------------------------------------------------------------
b------------------------------------------------------------
g-7/9-9-9-9\7-711--12-12-14-14-121111-14--14-14-14-14-12-12--
d-x-x-x-x-x-x-x-x---x--x--x--x--x-x-x--x---x--x--x--x--x--x--
a-5/7-7-7-7\5-5-9--10-10-12-12-10-9-9-12--12-12-12-12-10-10--
e------------------------------------------------------------

Verses:

e------------------------------------------------------------
b------------------------------------------------------------
g-9-------------------------9--9--9-9---9-911----------------
d-x-------------------------x--x--x-x---x-x-x----------------
a-7-------------------------7--7--7-7---7-7/9----------------
e------------------------------------------------------------

e------------------------------------------------------------
b------------------------------------------------------------
g-9----------------------11----------12----------------------
d-x----------------------12----------11----------------------
a-7-----------------------x-----------x----------------------
e------------------------10-----------9----------------------

e------------------------------------------------------------
b------------------------------------------------------------
g-----11-----------------12---------9-------11---------------
d-9------------------9---------------------------------------
a-x----------------------------------------------------------
e-7----------------------------------------------------------

e------------------------------------------------------------
b------------------------------------------------------------
g-------11--------11------12-12-12-12-12-12/14-14-14-14-14---
d-9-----------9------------x--x--x--x--x--x--x--x--x--x--x---
a-------------------------10-10-10-10-10-10/12-12-12-12-12---
e------------------------------------------------------------

Chorus: Fig 1.

after 2nd chorus

e------------------------------------------------------------
b-----------------------5--------5-------5----------5--------
g-------4----------4-------4----------------4-------4--------
d-2--------2---2---2--2----2---2------------2-------2--------
a-2--------------2-2-------2-------2-----------2--2----2-----
e-0----------------0-------0-------0---0-------0--0----0-----

Breakdown:

pm
e------------------------------------------------------------
b------------------------------------------------------------
g------------------------------------------------------------
d-7-9-9-9-9-9-7-9-9-9-9-9-12-12-12-9-------------------------
a-5-7-7-7-7-7-5-7-7-7-7-7-10-10-10-7-------------------------
e------------------------------------------------------------

Bridge:

e------------------------------------------------------------
b------------------------------------------------------------
g-7-9---9----7-9--9----12--12--7-9---9----7-9---9----12--12--
d-7-9---9----7-9--9----12--12--7-9---9----7-9---9----12--12--
a-5-7---7----5-7--7----10--10--5-7-7-7----5-7---7----10--10--
e----------0---------0-------------7----0-----0----0---------

Outro Solo: w/ wah and echo

e------19----19h22-19---------19h22-22--22-22--22brbrbrbrbr--
b-22------22----------22brbr---------------------------------
g------------------------------------------------------------
d------------------------------------------------------------
a------------------------------------------------------------
e------------------------------------------------------------

e-22rb-22rb---------19----------22---------------------------
b-----------22--22b----22b-22br----22b--22brbr---22b---------
g------------------------------------------------------------
d------------------------------------------------------------
a------------------------------------------------------------
e------------------------------------------------------------

e-22---22-22-22-----22-22-21--22p21p19-21--21--22p21---------
b---------------22b------------------------------------------
g------------------------------------------------------------
d------------------------------------------------------------
a------------------------------------------------------------
e------------------------------------------------------------

e-----20h21-19h22--------------------------------------------
b-22--------------22-22-22b--22--22-22-22--------------------
g-----------------------------------------21-19-21-19--19----
d------------------------------------------------------------
a------------------------------------------------------------
e------------------------------------------------------------

e------------------------------------------------------------
b--------------------------------------------22-------22-----
g-19------------------------------19/21-19h21---19h21--------
d----21\19-19-19-17\16/17-17-19-21---------------------------
a------------------------------------------------------------
e------------------------------------------------------------

e----------------------------19-19----19-------19-22-19------
b-------22-------22-------22-------22----22-22-----------22--
g-19h21----19h21----19h21------------------------------------
d------------------------------------------------------------
a------------------------------------------------------------
e------------------------------------------------------------

e----19-22---22---22-22--------22---22-----22---------22-----
b-22---------------------------------------------------------
g------------------------------------------------------------
d------------------------------------------------------------
a------------------------------------------------------------
e------------------------------------------------------------

thatís all
this is far from the most complete, but no one 
else has this solo, so ya know....

trevor jones





Comments


Popular Puddle Of Mudd tabs & chords
Heel Over Head Bass Tabs
Blurry 3 Chords
Control Chords
Bleed Tabs
Drift And Die 3 Tabs
Freak Of The World Tabs
Nobody Told Me Tabs
Nothing Left To Lose Intro Tabs
She Hates Me 10 Tabs
Blurry Ukulele


Song lyrics



↑ Back to top | Tablatures and chords are parodies/interpretations of the original songs. You may use it for private study, scholarship, research or language learning purposes only
© 2014 AZChords.com Contact us | Privacy policy | DMCA | Add/correct tabs | Request tabs | Top 50 tabs