» » »

Puddle Of Mudd, Control Bass tabs (ver.2)

Artists:  A B C D E F G H I J K L M N O P Q R S T U V W X Y Z # 

Control Bass tabs (ver.2)

Puddle Of Mudd Tabs
 Rating:
4.2/5 (5 votes)
Control lessons Tabs too difficult? Try these video lessons and learn fast
                Hi, this is my first tab but I think that everything is right, 
I couldn’t be bothered to put the last bit down because it Its 
so easy this is a great song by a great band so enjoy! 
This tab has not been on any other sites that I have seen 
so this is the first site to have it!


Intro/chorus

G----------------------------------------------------------------
D------------------------------------------------------------------------------
A----------------------------- /1st time-3 times / 4th time -once -------
E-9-9-99-12-12-12-11---- / 7-7-77-222-0    / 14-12-11-12------------

Verse

G-------------------------------------------------------------------
D-------------------------------------------------------------------
A----------------------14-14-14-14-99--------------------------
E-9-9-99-12-12-12----------------------------------------------

                                     
The end bits using similar notes so it won’t be hard to work out!                                                                           

===========
comments: Puddle of Mudd's guitars are tuned one and a 
half steps down(C#,F#,B,E) but I decided to tab it out 
in drop D-flat(Db,Ab,Db,Gb)cuz I didnt feel like tuning 
all the way down. play with a pick


Intro:4x's
Gb -----------------------------|--------------------------
Db *----------------------------|------------------------*-
Ab *----------------------------|-3--3-3-----------------*-
Db --0--0-0-0--0-3-3-3-3-3-2-0-0|--------0--5-5-5-5-5-3-3--


verse:3x's
Gb ------------------------------------------------------------------
Db *----------------------------------------------------------------*
Ab *---------------------------------3-3-3-3--3-3-3-----------------*
Db -0--0-0-0--0-3-(3)3-3-3--3-2-2-3----------------5(5)-5-5-5-5-3--3-   

chorus: same as intro

breakdown:(2:09) 3x's
Gb -------------
Db -------------
Ab --3-5-----3-5
Db -------------

then play this once:    
Gb ---------------------------------
Db ---------------------------------
Ab --3-5--5-5-5---3-5--5-5-5\8-8-8-8
Db ---------------------------------

bridge:(2:33)3x's
Gb -------------------------
Db -------------------------
Ab --3-5--5----3-5----8-8---
Db -----------0------0------

then play:5x's and on the 5th time ride the Ab-8
Gb ----------------------------------
Db ----------------------------------
Ab -3-5-5-5--5--5-3-5-5-5--5--5--8-8-
Db ----------------------------------

that's the song just that one riff modifided a little bit.
if you have any questions, drop me a line.
====
            
Submit corrections

comments powered by Disqus
↑ Back to top | Puddle Of Mudd Bass for Control. Lyrics for acoustic guitar and electric guitar. Tablatures and chords are parodies/interpretations of the original songs. You may use it for private study, scholarship, research or language learning purposes only