>
 >
Control 1

Control 1 Guitar Tabs

Puddle Of Mudd - Control 1 chords, tabs, tablatures, lyrics

Guitar lessons | Add/correct | Request | Top 50 tabs Artists:  A B C D E F G H I J K L M N O P Q R S T U V W X Y Z 0-9

Control 1 Guitar Tabs – Puddle Of Mudd

CD, Sheet music, Poster

Do you like Control 1? Share with your friends now
Bass TabsBass Tabs v2ChordsTabsTabs v2Tabs v3Tabs v4Tabs v5Tabs v6Ukulele
-------------------------------------------------------------------------------
                             Control - Puddle Of Mudd
-------------------------------------------------------------------------------

Seen a lot of bad tabs for this song and i know for a fact this is 100% right!
it sounds perfect when i play it! good luck and enjoy

Tuning: down 1/2 step, drop D (Db Ab Db Gb Bb eb)

Intro

Rhy. Fig. 1 (Gtr. 1)
|---------------------------------------------------------------------------|
|---------------------------------------------------------------------------|
|---------------------------------------------------------------------------|
|00000-03--3333\22--1010101010-105--5555-3-5---------1010101010-105--5555---|
|00000-03--3333\22--1010101010-105--5555-3-5---------1010101010-105--5555---|
|00000-03--3333\220-1010101010-105--5555-3-5-x3 1/2--1010101010-105--5555---|

Rhy. Fig. 2 (Gtr. 2) - This comes in after Rhy. Fig. 1 plays two times
|---------------------------------------------------------------------------|
|---------------------------------------------------------------------------|
|5/777755/9--1010101012---7/99997-5--55-5/77--5/77775/9-10-12-10-9-/--------|
|---------------------------------------------------------------------------|
|3/555533/7---8-8-8-810---5/77775-3--33-3/55--3/55553/7--8-10--8-7-/--------|
|---------------------------------------------------------------------------|

|---------------------------------------------------------------------------|
|---------------------------------------------------------------------------|
|121212121212-10--10101010--------------------------------------------------|
|---------------------------------------------------------------------------|
|101010101010--8---8-8-8-8--------------------------------------------------|
|---------------------------------------------------------------------------|

Verse - (Gtr. 1) (There is a clean-tone with a phaser on this guitar)
|---------------------------------------------------------------------------|
|---------------------------------------------------------------------------|
|7-------------------7------7-------7/9--7-------------------5--------4-----|
|---------------------------------------------------------------------------|
|5----------------------5-------5---5/7--5-------------------3--------2-----|
|---------------------------------------------------------------------------|

|---------------------------------------------------------------------------|
|---------------------------------------------------------------------------|
|-------9-----9------------10-------7------9-----9-------9-----------9-----9|
|---7-------7---------7------------------------------7-------------7--------|
|---------------------------------------------------------------------------|
|---------------------------------------------------------------------------|

   *wah on this bend*
|---------------------------------------------------------------------------|
|---------------------------------------------------------------------------|
|12b-hold bend-12121212121212-----------------------------------------------|
|---------------------------------------------------------------------------|
|---------------------------------------------------------------------------|
|---------------------------------------------------------------------------|

Guitar two comes in when Gtr. 1 plays the 12 with the wah above
|---------------------------------------------------------------------------|
|---------------------------------------------------------------------------|
|1010101010101010--12121212121212-------------------------------------------|
|---------------------------------------------------------------------------|
|-8-8-8-8-8-8-8-8--10101010101010-------------------------------------------|
|---------------------------------------------------------------------------|

Chorus - Exactly the same as Intro for both guitars!
Verse 2 - Same as first verse.
Chorus - same apart from at the end of it which is below

(Gtr. 1)
|---------------------------------------------------------------------------|
|---------------------------------------------------------------------------|
|---------------------7-------7-/-14-------14-/-19------(19)b---------------|
|0--------------------------------------------------------------------------|
|0--------------------5-------5-/-12-------12-/-17------(17)b---------------|
|0--------------------------------------------------------------------------|
 |--------------------

(Gtr. 2)
|---------------------------------------------------------------------------|
|---------------------------------------------------------------------------|
|---7--------7---------7------------7---------------------------------------|
|------7--------7---------7-----7-------------------------------------------|
|5--------5-------x3---------5----5-----------------------------------------|
|---------------------------------------------------------------------------|

Bridge
Rhy. Fig. 3 (Gtr. 1)(x8)
|---------------------------------------------------------------------------|
|---------------------------------------------------------------------------|
|---------------------------------------------------------------------------|
|5777775777771010100--5777775777771010100-----------------------------------|
|355555355555-8-8-80--355555355555-8-8-80-----------------------------------|
|---------------------------------------------------------------------------|

After Rhy. Fig. 3 two times Gtr. 2 plays
|---------------------------------------------------------------------------|
|---------------------------------------------------------------------------|
|57-----57-----5/7--7--7-5/7--7--7-10-----5/7------5/7------10--10----------|
|57-----57-----5/7--7--7-5/7--7--7-10-----5/7-0--0-5/7-0--0-10--10----------|
|35-----35-x4--3/5--5--5-3/5--5--5--8-x4--3/5-0--0-3/5-0--0--8---8----x3----|
|---------------------------------------------0--0-----0--0---------0-------|

|---------------------------------------------------------------------------|
|---------------------------------------------------------------------------|
|5/7------5/7--101010101010-------------------------------------------------|
|5/7-0--0-5/7--101010101010-------------------------------------------------|
|3/5-0--0-3/5---8-8-8-8-8-8-------------------------------------------------|
|----0--0-------------------------------------------------------------------|

Chorus - Exactly the same as Intro for both guitars!
Then it goes Gtr.1 - Rhy. Fig. 1 (x2)
             Gtr.2 after two measures of Rhy. Fig. 1 - Rhy. Fig. 2

Ending (Gtr.1)
|-----------------------|
|-----------------------|
|-----------------------|
|1010101010-105--5555-3-|
|1010101010-105--5555-3-|
|1010101010-105--5555-3-|


| /  slide up
| \  slide down
| h  hammer-on
| p  pull-off
| ~  vibrato
| +  harmonic
| x  Mute note
===============================================================================





Comments


Popular Puddle Of Mudd tabs & chords
Away From Me Bass Tabs
Blurry 1 Bass Tabs
Bottom Bass Tabs
She Hates Me Bass Tabs
She Hates Me Chords
Blurry Drum Tabs
Merry-go-round Tabs
She Hates Me 11 Tabs
The Only Reason Tabs
Uno Mas Intro Tabs


Song lyrics



↑ Back to top | Tablatures and chords are parodies/interpretations of the original songs. You may use it for private study, scholarship, research or language learning purposes only
© 2014 AZChords.com Contact us | Privacy policy | DMCA | Add/correct tabs | Request tabs | Top 50 tabs