» » »

Puddle Of Mudd, Control Bass tabs (ver.1)

Artists:  A B C D E F G H I J K L M N O P Q R S T U V W X Y Z # 

Control Bass tabs (ver.1)

Puddle Of Mudd Tabs
 Rating:
4/5 (4 votes)
Control lessons Tabs too difficult? Try these video lessons and learn fast
1
                ----------------------------------------------------------------------------
----------------------------------------------------------------------------


Tuning:Drop D 1/2 step


Intro:4x
Gb ----------------------------------------------------|
Db ----------------------------------------------------|
Ab ---------------------------3--3-3-3--3--------------|
Db --0--0-0-0--0-3-3-3-3-3-2--------------5-5-5-5-5-3~-|

verse:3x
Gb ----------------------------------------------------|
Db ----------------------------------------------------|
Ab ---------------------------3--3-3-3--3--------------|
Db --0--0-0-0--0-3-3-3-3-3-2--------------5-5-5-5-5-3~-|

chorus:4x
Gb ----------------------------------------------------|
Db ----------------------------------------------------|
Ab ---------------------------3--3-3-3--3--------------|
Db --0--0-0-0--0-3-3-3-3-3-2--------------5-5-5-5-5-3~-|

breakdown: Pt.1 4x
Gb ---------------|
Db ---------------|
Ab ---------------|
Db -10-12---10-12-|

breakdown: Pt.2 8x
Gb ----------------------------------|
Db ----------------------------------|
Ab --------------------------8-8-8-8-|
Db -10h12-12-12-10h12-12-12----------|

chorus:7x
Gb ----------------------------------------------------|
Db ----------------------------------------------------|
Ab ---------------------------3--3-3-3--3--------------|
Db --0--0-0-0--0-3-3-3-3-3-2--------------5-5-5-5-5-3~-|

Outro:1X
Gb -------------------------------------------|
Db -------------------------------------------|
Ab ---------------------------333333----------|
Db --0--0-0-0--0-3-3-3-3-3-2---------55555-3--|
            
Submit corrections

comments powered by Disqus
↑ Back to top | Puddle Of Mudd Bass for Control. Lyrics for acoustic guitar and electric guitar. 1 Tablatures and chords are parodies/interpretations of the original songs. You may use it for private study, scholarship, research or language learning purposes only