» » »

Bring Me Down Bass tabs (ver.3)

Artists:  A B C D E F G H I J K L M N O P Q R S T U V W X Y Z # 

Bring Me Down Bass tabs (ver.3)

Puddle Of Mudd
Rating:
0/5 (0 votes)

Tabs too difficult? Try these video lessons and learn fast.
                Intro
G|-------------------------------------------          x2
D|-------------------------------------------
A|-------------------------------------------
E|---000000000--22222222--77777777--5555-3333
Verse
Same as Intro. Then go.

Jesus never sleeps.
G|-----------------|       x2
D|-----------------|
A|----------7~---6~|
E|---7~------------|
Chorus 1
G|------------------------------------------| ----------------------|
D|------------------------------------------| ----------------------|
A|----6-6-6666---555---3-3-0-0-0000---------| --6-6-666--555-3-3-0-0|
E|----------------------------------2-2-2222| ----------------------|
Then Verse and Slow part again.

Chorus 2                     x2 then                                      
G|------------------------------------------|----------------------|
D|------------------------------------------|----------------------|
A|----6-6-6666---555---3-3-0-0-0000---------|--6-6-666--555-3-3-0-0|
E|----------------------------------2-2-2222|----------------------|
Bridge
G|------------------------------------------|
D|--3------3--------3----------3------------|
A|------------------------------------------|
E|---4343-----43433----4343---------43433---|

Then Chorus 2. 
Back to Bridge.

End on

E|--5~-----|
            
Tabs too difficult? Try these video lessons and learn fast.


comments powered by Disqus
↑ Back to top | Tablatures and chords are parodies/interpretations of the original songs. You may use it for private study, scholarship, research or language learning purposes only