» » »

Puddle Of Mudd, Bring Me Down Bass tabs (ver.2)

Artists:  A B C D E F G H I J K L M N O P Q R S T U V W X Y Z # 

Bring Me Down Bass tabs (ver.2)

Puddle Of Mudd Tabs
Rating:
0/5 (0 votes)
Hard to play? Try these video lessons and learn fast.
                -------------------------------------------------------------------------------
			     BRING ME DOWN – Puddle of Mudd
-------------------------------------------------------------------------------


Tuning: (Eb,Ab,Db,Gb)

Riff 1

G|---------------------------------------------------------------|
D|---------------------------------------------------------------|
A|-0---0---0-0-0-3---3-3---3-3-3---7---7---7-7-7-6---6-6-5---5-5-|
E|---------------------------------------------------------------|

Riff 2

G|-----------------------------------------------------------------|
D|-----------------------------------------------------------------|
A|-0---0---0-0-0-3---3-3---3-3-3---7----6----5----7----6----5----7-|
E|-----------------------------------------------------------------|

Chorus

G|-----------------------------------------------------------------|
D|-----------------------------------------------------------------| x1 1st Chorus
A|-6---6---6-6-6-5---5-5---3---3-----------------------------------| x3 2nd + 3rd Chorus
E|---------------------------------5---5---5-5-5-0---0-0-0---0-0-0-| 
                                       (Third time round in third chorus play higher E)          
G|---------------------------------|
D|---------------------------------|
A|-6---6---6-6-6-5---5-5-3---3-3-3-|
E|---------------------------------|

Bridge

G|-----------------------------|
D|-----------------------------|
A|-----------------------------|
E|-3--5-5-5-5--3--5-5-5-5-5-5-5|

| /  slide up
| \  slide down
| h  hammer-on
| p  pull-off
| ~  vibrato
| +  harmonic
| x  Mute note
===============================================================================
            

comments powered by Disqus
↑ Back to top | Puddle Of Mudd Bass for Bring Me Down. Lyrics for acoustic guitar and electric guitar. Tablatures and chords are parodies/interpretations of the original songs. You may use it for private study, scholarship, research or language learning purposes only