» » »

Puddle Of Mudd, Bring Me Down Tabs (ver.1)

Artists:  A B C D E F G H I J K L M N O P Q R S T U V W X Y Z # 

Bring Me Down Tabs (ver.1)

Puddle Of Mudd Tabs
 Rating:
4.3/5 (6 votes)
Bring Me Down lessons Tabs too difficult? Try these video lessons and learn fast
                
Bring Me Down-Puddle Of Mudd
Come Clean

Drop Db:
Db Ab Db Gb Bb Eb


Intro:

gtr. 2&3

e-----------------------------------------------------------------
b-----------------------------------------------------------------
g-2---2---2-2-2-5---5-5-5-5-5-5-5-9---9---9-9-9-8-8-8-8-7-7-7-7-7-
d-2---2---2-2-2-5---5-5-5-5-5-5-5-9---9---9-9-9-8-8-8-8-7-7-7-7-7-
a-0---0---0-0-0-3---3-3-3-3-3-3-3-7---7---7-7-7-6-6-6-6-5-5-5-5-5-
d-----------------------------------------------------------------

gtr. 1

e-----------------------------------------------------------------
b10--10--101110-8---8-8-8-8-8-8-812--12--12131211--11111111111111-
g-x---x---x-x-x-x---x-x-x-x-x-x-x-x---x---x-x-x-x---x-x-x-x-x-x-x-
d-7---7---7-8-7-5---5-5-5-5-5-5-5-9---9---910-9-8---8-8-8-8-8-8-8-
a-----------------------------------------------------------------
d-----------------------------------------------------------------

gtr. 2&3

e-----------------------------------------------------------------
b-----------------------------------------------------------------
g-2---2---2-2-2-5---5-5-5-5-5-5-5-9---9---9-9-9-8-8-8-8-7---------
d-2---2---2-2-2-5---5-5-5-5-5-5-5-9---9---9-9-9-8-8-8-8-7---------
a-0---0---0-0-0-3---3-3-3-3-3-3-3-7---7---7-7-7-6-6-6-6-5---------
d-----------------------------------------------------------------

gtr. 1

e-----------------------------------------------------------------
b10--10--101110-8---8-8-8-8-8-8-812--12--12131211--111111---------
g-x---x---x-x-x-x---x-x-x-x-x-x-x-x---x---x-x-x-x---x-x-x---------
d-7---7---7-8-7-5---5-5-5-5-5-5-5-9---9---910-9-8---8-8-8---------
a-----------------------------------------------------------------
d-----------------------------------------------------------------

Verses:

e-----------------------------------------------------------------
b-----------------------------------------------------------------
g-2-2-2-2-2-2-2-5-5-5-5-5-5-5-5-5-9-9-9-9-9-9-9-8-8-8-8-8-7-7-7-7-
d-2-2-2-2-2-2-2-5-5-5-5-5-5-5-5-5-9-9-9-9-9-9-9-8-8-8-8-8-7-7-7-7-
a-0-0-0-0-0-0-0-3-3-3-3-3-3-3-3-3-7-7-7-7-7-7-7-6-6-6-6-6-5-5-5-5-
d-----------------------------------------------------------------

lead over top:

e-----------------------------------------------------------------
b-----------------------------------------------------------------
g------------------------------------------------8-8-8-7-7-7------
d-7---7---7-8-7-5~~-5-5-5-5-5-5-5-9---9-9-9-10-9-------------7----
a-----------------------------------------------------------------
d-----------------------------------------------------------------

e-----------------------------------------------------------------
b-----------------------------------------------------------------
g-2-2-2-2-2-2-2-5-5-5-5-5-5-5-5-5-9-------------8---------7-------
d-2-2-2-2-2-2-2-5-5-5-5-5-5-5-5-5-9-------------8---------7-------
a-0-0-0-0-0-0-0-3-3-3-3-3-3-3-3-3-7-------------6---------5-------
d-----------------------------------------------------------------

lead:

e-----------------------------------------------------------------
b-----------------------------------------------------------------
g-----------------------------------------------------------------
d-7---7---7-8-7-5---5-5-5-5-5-5-5---------------------------------
a-----------------------------------------------------------------
d-----------------------------------------------------------------

e-----------------------------------------------------------------
b------------------------------------------------------9----------
g-9---------------8---------7----------9---------------9----------
d-9---------------8---------7----------9---------------9----------
a-7---------------6---------5----------7---------------7----------
d-----------------------------------------------------------------

Chorus:

e-----------------------------------------------------------------
b-----------------------------------------------------------------
g-----------------------------------------------------------------
d-8---8---8-8-8-7---7-7-7--5---5---2---2---2-2-2------------------
a-6---6---6-6-6-5---5-5-5--3---3---0---0---0-0-0-2---2-2-2-2-2-2-2
d------------------------------------------------2---2-2-2-2-2-2-2

e-----------------------------------------------------------------
b-----------------------------------------------------------------
g-----------------------------------------------------------------
d-8---8---8-8-8-7---7-7-7--5---5---2---2---2-2-2-5---5-5-5-5-5-5-5
a-6---6---6-6-6-5---5-5-5--3---3---0---0---0-0-0-3---3-3-3-3-3-3-3
d-----------------------------------------------------------------

e-----------------------------------------------------------------
b-----------------------------------------------------------------
g-----------------------------------------------------------------
d-9---9---9-9-9-8---8-8-7-7---------------------------------------
a-7---7---7-7-7-6---6-6-5-5---------------------------------------
d-----------------------------------------------------------------

Chorus 2:

e-----------------------------------------------------------------
b-----------------------------------------------------------------
g-----------------------------------------------------------------
d-5--7-7-7---5---7-7-7-7-7-5-5-7-5--7-7-7---5---7-7-7-7-7-5-5-7-5-
a-x--7-7-7-0-x---7-7-7-7-7-5-5-7-x--7-7-7-0-x---7-7-7-7-7-5-5-7-5-
d-5--7-7-7-0-5---7-7-7-7-7-5-5-7-5--7-7-7-0-5---7-7-7-7-7-5-5-7-5-

gtr. 1

e-----------------------------------------------------------------
b-----------------------------------------------------------------
g-----------------------------------------------------------------
d-5--7-7-7---5---7-7-7-7-7-5-5-7-5--7-7-7---5---7-7-7-7-7-5-5-7-5-
a-x--7-7-7-0-x---7-7-7-7-7-5-5-7-x--7-7-7-0-x---7-7-7-7-7-5-5-7-5-
d-5--7-7-7-0-5---7-7-7-7-7-5-5-7-5--7-7-7-0-5---7-7-7-7-7-5-5-7-5-

gtr. 2 (tremolo pick)

e-5-----------6--6-----7---------8--------8-10-10-11---12-----13--
b-x-----------x--x-----x---------x--------x--x--x--x----x------x--
g-2-----------3--3-----4---------5--------5--7--7--8----9-----10--
d--------------------------------------7--------------------------
a-----------------------------------------------------------------
d-----------------------------------------------------------------

Interlude: A5, C5, E5, Eb5, D5


w/ vibrato effct

e-----------------------------------------------------------------
b---10-------------8----------------------------------------------
g----x-------------x------------------9-------------8--------7-7--
d----7---7-----5-5-5-------5---/9-9-9-9-9-9---9-8-8-8-8--7-7-7-7--
a-0---------0---------0--0---0----------7---7---6-6-6-6--5-5-5-5--
d-----------------------------------------------------------------

End With Chorus:

that’s about all

trevor jones
            
Submit corrections

comments powered by Disqus
↑ Back to top | Puddle Of Mudd Tabs for Bring Me Down. Lyrics for acoustic guitar and electric guitar. Tablatures and chords are parodies/interpretations of the original songs. You may use it for private study, scholarship, research or language learning purposes only