» » »

Primus, De Anza Jig Bass tabs (ver.1)

Artists:  A B C D E F G H I J K L M N O P Q R S T U V W X Y Z # 

De Anza Jig Bass tabs (ver.1)

Primus Tabs
 Rating:
4/5 (4 votes)
De Anza Jig lessons Tabs too difficult? Try these video lessons and learn fast
                -------------------------------------------------------------------------------
			     De Anza Jig - Primus
-------------------------------------------------------------------------------


Tuning:

G|----------------------|
D|----------------------|
A|-3---3---3---3---0-2--|   X2
E|---3---3---3---3------|

G|------0-5-9999-7-5-0--9999-7-5-0----------|
D|----2----------------------------0-0-2-0--|
A|--3---------------------------------------|
E|------------------------------------------|

G|-----0-5-9999-7-5-0--9-7----------------------|
D|---2---------------------10---10-8-----7-5----|
A|-3---------------------------------10------7\-|
E|----------------------------------------------|

G|----------------------|
D|----------------------|
A|-3---3---3---3---0-2--|
E|---3---3---3---3------|

G|-----------0---------------------0-----|
D|-----2---2-----------------2---2-------|
A|-3-----3-----3/5--3/5--3-----3-----5\3-|
E|---3---------------------3-------------|

Thats pretty much all of the parts to the song, its fairly easy to figure out where to 
each part, just listen to the song.

| /  slide up
| \  slide down
| h  hammer-on
| p  pull-off
| ~  vibrato
| +  harmonic
| x  Mute note
===============================================================================
            
Submit corrections

comments powered by Disqus
↑ Back to top | Primus Bass for De Anza Jig. Lyrics for acoustic guitar and electric guitar. Tablatures and chords are parodies/interpretations of the original songs. You may use it for private study, scholarship, research or language learning purposes only