» » »

De Anza Jig Tabs (ver.1)

Artists:  A B C D E F G H I J K L M N O P Q R S T U V W X Y Z # 

De Anza Jig Tabs (ver.1)

Primus
Rating:
0/5 (0 votes)

Hard to play? Try these video lessons and learn fast.
                Primus- De Anza Jig
get a  banjo an do it right buut most will not, so heres the guitar version

e ---------------------------------------------------------------------------
B ----------------------------------5---3------------------5---3-------------
G -----------------------5------5-----------5----------5-----------5-----5--5
D --------------2--2-/5------------------------5----------------------5------
A -----0--2--3---------------------------------------------------------------
E --3------------------------------------------------------------------------

Main riff: (when the bass goes A|-3---3--
                               E|---3---3, etc.)

e|-----------------------------------------------------------|
B|-----------------------------------------------------------|
G|----5-x----------5---------5-x--------5-5------------------|
D|----5-x---5-x----5----5----5-x---5-x--5-5------------------|
A|--3-3-x---5-x--3-3----5--3-3-x---5-x--3-3----0-2-----------|
E|--------3-3-x------3--3--------3-3-x-------3---------------|

Play when bass does solo thingy
e|-----------------------------------------------------------|
B|-----------------------------------------------------------|
G|----5-x----------5---------5-x--------7-7---7-7------------|
D|----5-x---5-x----5----5----5-x---5-x--7-7-7-7-7------------|
A|--3-3-x---5-x--3-3----5--3-3-x---5-x--5-5-----5------------|
E|--------3-3-x------3--3--------3-3-x-----------------------|

e|--------------------------------------------------|
B|---------------------------9-7-5--5---------------|
G|----5-x----------5---------9-7-5--5-7-5--5--------|
D|----5-x---5-x----5----5-------------7-5--5--------|
A|--3-3-x---5-x--3-3----5--------------------7-5-3--|
E|--------3-3-x------3--3---------------------------|


I can still remember...
e|-----------------------------------------------------------|
B|-----------------------------------------------------------|
G|----5-x----------9-x----5-x----9-x----5-x--7-7---7-7-------|
D|----5-x---5-x----9-x----5-x----9-x----5-x--7-7-7-7-7-------|
A|--3-3-x---5-x--7-7-x--3-3-x--7-7-x--3-3-x--5-5-----5-------|
E|--------3-3-x----------------------------------------------|

I remember the day that she...
e|-----------------------------------------------------------|
B|-----------------------------------------------------------|
G|----5-x----------9-x----5-x----9-x-----12-x----7-x--5------|
D|----5-x---5-x----9-x----5-x----9-x-----12-x----7-x--5------|
A|--3-3-x---5-x--7-7-x--3-3-x--7-7-x--10-10-x--5-5-x--3------|
E|--------3-3-x----------------------------------------------|

2nd banjo solo
e ------------------------------------------------------------------------------
B ------------------------------------------------------------------------------
G ---------------0-----0--0--2--0---------------------0-----0-------------------
D ------------2-----2---------------2p--0----------2-----2----------------------
A -----0--2---------------------------------3------------------2--3--3---0--0--2
E --3---------------------------------------------------------------------------

Ending
e|-----------------------------|
B|------9-7-5--5---------------|
G|------9-7-5--5-7-5--5--------|
D|---------------7-5--5--------|
A|----------------------7-5-3--|
E|-----------------------------|
            
Hard to play? Try these video lessons and learn fast. | Correct




comments powered by Disqus
↑ Back to top | Tablatures and chords are parodies/interpretations of the original songs. You may use it for private study, scholarship, research or language learning purposes only