» » »

De Anza Jig Bass tabs (ver.3)

Artists:  A B C D E F G H I J K L M N O P Q R S T U V W X Y Z # 

De Anza Jig Bass tabs (ver.3)

Primus
Rating:
0/5 (0 votes)

Hard to play? Try these video lessons and learn fast.
                
DE ANZA JIG (Bassline)
As recorded by Primus
(From the 1995 Album TALES FROM THE PUNCHBOWL)

	

Words by Les Claypool Music by Les Claypool, Larry 'Ler' Lalonde, Tim 'Herb' Alexander
Arranged by James Stewart

Gtr I (E A D G) - 'Les Claypool Upright Fretless'

 Intro
  Q=169(8=s8)
 4/4
  Gtr I
  W            Q  Q  Q  Q    Q  Q  Q  E E   Q  Q  Q  Q    Q  Q  Q  E E
|----------||--------------|--------------|-------------|----------------||
|----------||o-------------|--------------|-------------|---------------o||
|----------||o-3-----------|-3----------2-|-3-----------|-3----------2--o||
|----------||--------3-----|-------3------|-------3-----|-------3--------||


                      |-3-|
  a Q  q    Q   q     E E E E E  E  E  +Q
|------------------|-/9-9-9-9-7-------------|
|--------------10--|------------10----------|
|------7--/10------|---------------10-(10)--|
|-3s8--------------|------------------------|


   |-3-|
   E E E E E  E  E  +Q     q  E E Q.   E
|-/9-9-9-9-7-------------|----------------|
|------------10----------|----------------|
|---------------10-(10)--|-5--5h7-5-------|
|------------------------|-------------0--|


                                                                 2/4
                      |-3-|
  a Q  q    Q   q     E E E E E  E  E  +Q     E E  Q   E E  Q     E E Q
|------------------|-/9-9-9-9-7-------------|-9-7---------------|----------|
|--------------10--|------------10----------|-----10--10-7------|-5--------|
|------7--/10------|---------------10-(10)--|--------------10\--|---5-7\---|
|-3s8--------------|------------------------|-------------------|----------|


 4/4
  Q  Q  Q  Q    Q  Q  Q  E E   Q  Q  Q  Q    Q  Q  Q  E E
|-------------|--------------|-------------|--------------||
|-------------|--------------|-------------|--------------||
|-3-----------|-3----------2-|-3-----------|-3----------2-||
|-------3-----|-------3------|-------3-----|-------3------||


   Verse
    $
    Q  Q  Q  Q    Q  Q  Q  Q    Q  Q  Q  Q     Q  Q   Q  Q
||--------------|-------------|-------------|----------------|
||o-------------|-2-----------|-2-----------|----------------|
||o-3-----------|-------3-----|-------3-----|-/5-----/5------|
||--------3-----|-------------|-------------|----------------|


                             1.
                    To Coda
                                           2/4
  Q  Q  Q  Q    Q  Q  Q  Q    Q  Q  Q  Q    H
|-------------|-------------|-------------|-------|
|-------------|-2-----------|-2-----5-----|-------|
|-3-----------|-------3-----|-------------|-5\----|
|-------3-----|-------------|-------------|-------|


 4/4
           |-3-|
  Q  Q  Q  E E E   Q  Q  Q  Q    Q  Q  Q  Q    Q  Q  Q  Q
|----------------|-------------|-------------|---------------||
|----------------|-------------|-------------|--------------o||
|-3--------x---2-|-3-----------|-3-----------|-3------------o||
|-------3--------|-------3-----|-------3-----|-------3-------||


  2.
                 2/4          4/4
  Q  Q  a Q  Q     Q.   +E     Q  Q  Q  Q    Q  Q  Q  Q
|---------------|------------|-------------|-------------||
|-2-----4s5-----|------------|-------------|-------------||
|---------------|-/5----(5)\-|-3-----------|-3-----------||
|---------------|------------|-------3-----|-------3-----||


 Break (Banjo)
  Q  Q  Q  E E   Q  Q  Q  Q    Q  Q  Q  Q    Q  Q  Q  E. S
|--------------|-------------|-------------|---------------|
|--------------|-------------|-------------|---------------|
|-3----------2-|-3-----------|-3-----------|-3-----------x-|
|-------3------|-------3-----|-------3-----|-------3-------|


                                                  |---3---|
  Q  Q  Q  Q    Q  Q  Q  Q    a Q  q    Q   q     E     E E E E  E  E  +Q
|-------------|-------------|------------------|-/9b10==9-9r9-7----------------|
|-------------|-------------|--------------10--|----------------10-------------|
|-3-----------|-3-----------|------7--/10------|-------------------10-(10)\----|
|-------3-----|-------3-----|-3s8--------------|-------------------------------|


   |-3-|
   E E E E E  E  E  +Q     q  E E Q.   E
|-/9-9-9-9-7-------------|---------------|
|------------10----------|---------------|
|---------------10-(10)--|-5--5h7-5------|
|------------------------|-------------0-|


                     |-3-|
  a Q  q   Q   q     E E E E E  E  E  +Q
|-----------------|-/9-9-9-9-7--------------|
|-------------10--|------------10-----------|
|------7--10------|---------------10-(10)---|
|-3s8-------------|-------------------------|


                     2/4       4/4
  E E  Q   E E  Q     E E Q     Q  Q  Q  Q    Q  Q  Q  E E
|-9-7---------------|---------|-------------|--------------|
|-----10--10-7------|-5-------|-------------|--------------|
|--------------10\--|---5-7\--|-3-----------|-3----------2-|
|-------------------|---------|-------3-----|-------3------|


                              Verse
               D.S. al Coda &
                                               2/4
  Q  Q  Q  Q    Q  Q  Q  Q     H     Q  +q      H
|-------------|-------------||----------------|-------|
|-------------|-------------||-2/----5--(5)\--|-------|
|-3-----------|-3-----------||----------------|-5\----|
|-------3-----|-------3-----||----------------|-------|


 4/4
  Q  Q  Q  Q    Q  Q  Q  E E   Q  Q  Q  Q    Q  Q  Q  Q
|-------------|--------------|-------------|-------------|
|-------------|--------------|-------------|-2-----------|
|-3-----------|-3----------2-|-3-----------|-------3-----|
|-------3-----|-------3------|-------3-----|-------------|


 4/4
  Q  Q  Q  Q    E E +Q   H       Q  Q  Q  Q    Q  Q  Q  Q
|-------------|----------------|-------------|-------------|
|-2-----------|----------------|-------------|-2-----------|
|-------3-----|-x-5-(5)--5\----|-3-----------|-------3-----|
|-------------|----------------|-------3-----|-------------|


                2/4     4/4
  Q.   E Q  Q    H       Q  Q  Q  Q    Q  Q  Q  E E
|--------------|-------|-------------|--------------||
|-2/-----5-----|-------|-------------|--------------||
|--------------|-5\----|-3-----------|-3----------2-||
|--------------|-------|-------3-----|-------3------||


 Banjo Solo
  Q  Q  Q  Q    Q  Q  Q  E E   Q  Q  Q  Q    Q  Q  Q  E E
|-------------|--------------|-------------|--------------||
|-------------|--------------|-------------|--------------||
|-3-----------|-3----------2-|-3-----------|-3----------2-||
|-------3-----|-------3------|-------3-----|-------3------||


 Outro (Yeehaw!)
                                                   |-3-|
  Q  Q  Q  Q    Q  Q  Q  E E   a Q  q    Q   q     E E E E E  E  E  +Q
|-------------|--------------|------------------|-/9-9-9-9-7---------------|
|-------------|--------------|--------------10--|------------10------------|
|-3-----------|-3------------|------7--/10------|---------------10-(10)----|
|-------3-----|-------3----0-|-3s8--------------|--------------------------|


   |-3-|
   E E E E E  E  E  +Q     q  E E Q.   E
|-/9-9-9-9-7-------------|---------------|
|------------10----------|---------------|
|---------------10-(10)--|-5--5h7-5------|
|------------------------|-------------0-|


                      |-3-|
  a Q  q    Q   q     E E E E E  E  E  +Q
|------------------|-/9-9-9-9-7--------------|
|--------------10--|------------10-----------|
|------7--/10------|---------------10-(10)---|
|-3s8--------------|-------------------------|


                      2/4       4/4
   E E  Q   E E  Q     E E Q     Q  E E Q  Q    Q  Q  Q  E E
|-/9-7---------------|---------|--------------|--------------|
|------10--10-7------|-5-------|--------------|--------------|
|---------------10\--|---5-7\--|-3------------|-3----------2-|
|--------------------|---------|------x-3-----|-------3------|


                      2/4       4/4
   E E  Q   E E  Q     E E Q     Q  Q  Q  Q    Q  Q  Q  E E
|-/9-7---------------|---------|-------------|---------------|
|------10--10-7------|-5-------|-------------|---------------|
|---------------10\--|---5-7\--|-3-----------|-3----------2/-|
|--------------------|---------|-------3-----|-------3-------|


                      2/4       4/4
                                             >
   E E  Q   E E  Q     E E Q     W          +W
|-/9-7---------------|---------|----------|--------*|
|------10--10-7------|-5-------|----------|--------*|
|---------------10\--|---5-7\--|-3--------|-(3)----*|
|--------------------|---------|----------|--------*|



Duration Legend
---------------
W - whole; H - half; Q - quarter; E - 8th; S - 16th; T - 32nd; X - 64th; a - acciaccatura
+ - note tied to previous; . - note dotted; .. - note double dotted
Uncapitalized letters represent notes that are staccato (1/2 duration)
Irregular groupings are notated above the duration line
Duration letters will always appear directly above the note/fret number it represents the
duration for.  Duration letters with no fret number below them represent rests.  Multi-
bar rests are notated in the form Wxn, where n is the number of bars to rest for.  Low
melody durations appear below the staff

Tablature Legend
----------------
 h   - hammer-on
 p   - pull-off
 b   - bend
 pb  - pre-bend
 r   - bend release (if no number after the r, then release immediately)
 /\  - slide into or out of (from/to "nowhere")
 s   - legato slide
 S   - shift slide
 - natural harmonic
[n]  - artificial harmonic
n(n) - tapped harmonic
 ~   - vibrato
 tr  - trill
 T   - tap
 TP  - trem. picking
 PM  - palm muting
\n/  - tremolo bar dip; n = amount to dip
 \n  - tremolo bar down
 n/  - tremolo bar up
/n\  - tremolo bar inverted dip
 =   - hold bend; also acts as connecting device for hammers/pulls
 <> - volume swell (louder/softer)
 x   - on rhythm slash represents muted slash
 o   - on rhythm slash represents single note slash

Misc Legend
-----------
 |  - bar
||  - double bar
||o - repeat start
o|| - repeat end
*|  - double bar (ending)
 :  - bar (freetime)
 $  - Segno
 &  - Coda
Tempo markers -  = BPM(8/16=s8/s16), where s8 = swing 8ths, s16 = swing 16ths
            
Hard to play? Try these video lessons and learn fast. | Correct




comments powered by Disqus
↑ Back to top | Tablatures and chords are parodies/interpretations of the original songs. You may use it for private study, scholarship, research or language learning purposes only