» » »

Priestess, Lay Down Tabs (ver.3)

Artists:  A B C D E F G H I J K L M N O P Q R S T U V W X Y Z # 

Lay Down Tabs (ver.3)

Priestess Tabs
Rating:
5/5 (2 votes)
Lay Down lessons Tabs too difficult? Try these video lessons and learn fast
                -------------------------------------------------------------------------------
                             LAY DOWN - Priestess
-------------------------------------------------------------------------------

Tuning:1/2 Step Down


NOTE A: The End Of The Chorus Riff Consists Of Two Regular Power Chords
    And One Palm Muted One. Check Out The Choruses To See What I Mean, The
    Palm Muted Chords Are Marked By An * Directly Beneath. The Muted Chords
    Are Not Very Pronounced At All, But Do Exist. They Don't, Most May
    Argue, But Most Would Be Wrong. Apparently, Guitar Hero Verifies This,
    If You're Interested. Thanks To DimebagZappa For Pointing Out The Chord.

There Were Some Close Ones And Some Terrible Ones. These Are The Correct
Notes On The Correct Parts Of The Fret Board (Watch Priestess Play It).
Times Are Approximate. 2 Guitars Play The Same Except For Solo.

Also, They Got An Organ In On The Action For The Studio Version. It's Only Apparent A Few
Times, But If It's Not Tabbed Here, It Is Probably The Organ.

INTRO (PRE-VERSE #1)

00:02
d#|---------------------------------------|
A#|---------------------------------------|
F#|---------0-----------------------------|
C#|---------------------7-5---5-----5-5-7-|
G#|-------------------------7---7-5-5-5-7-|
D#|-0-0-5-7---5-5-5-3-5-------------3-3-5-|

00:06
d#|---------------------------------------|
A#|---------------------------------------|
F#|---------0-----------------------------|
C#|---------------------7-5---5-----5-5-7-|
G#|-------------------------7---7-5-5-5-7-|
D#|-0-0-5-7---5-5-5-3-5-------------3-3-5-|

00:10
d#|---------------------------------------|
A#|---------------------------------------|
F#|---------0-----------------------------|
C#|---------------------7-5---5-----5-5-7-|
G#|-------------------------7---7-5-5-5-7-|
D#|-0-0-5-7---5-5-5-3-5-------------3-3-5-|

00:14
d#|--------------------------------------------------------------|
A#|--------------------------------------------------------------|
F#|---------0----------------------------------------------------|
C#|---------------------7-5---5-----5-4-3-22-XXX-22-XXX-22-XXX-2-|
G#|-------------------------7---7-5-5-4-3-22-XXX-22-XXX-22-XXX-2-|
D#|-0-0-5-7---5-5-5-3-5-------------3-2-1-00-XXX-00-XXX-00-XXX-0-|


FILLER

00:20
d#|----------------|
A#|----------------|
F#|----------------|
C#|---12---9---7---|
G#|---10---7---5---|
D#|-0----0---0---0-|


VERSE #1

Lay Down, Sleep...
00:22                    00:26
d#|------------------------0-------------------------------|
A#|------------------------0-------------------------------|
F#|------------------------0-------------------------------|
C#|-2-22-22-22-22-22-22-22-0-2-22-22-22-2-12-12\-XX-12-12\-|
G#|-2-22-22-22-22-22-22-22-0-2-22-22-22-2-10-10\-XX-10-10\-|
D#|-0-00-00-00-00-00-00-00-0-0-00-00-00-0------------------|
     [     Palm Mute      ] [ Palm Mute  ]

Lay Down, Just...
00:30                    00:34
d#|--------------------------------------------------------|
A#|--------------------------------------------------------|
F#|--------------------------------------------------------|
C#|-2-22-22-22-22-22-22-22-0-2-22-22-22-2-12-12\-XX-12-12\-|
G#|-2-22-22-22-22-22-22-22-0-2-22-22-22-2-10-10\-XX-10-10\-|
D#|-0-00-00-00-00-00-00-00-0-0-00-00-00-0------------------|
     [     Palm Mute      ] [ Palm Mute  ]

         (Could) I Leave You...
00:38
d#|------------------------------------------------------------------|
A#|------------------------------------------------------------------|
F#|-2-22-22-22-22-22-22-22-2---------0-------------------------------|
C#|-2-22-22-22-22-22-22-22-2---------------------7-5---5-----5-7-8-9-|
G#|-0-00-00-00-00-00-00-00-0-------------------------7---7-5-5-7-8-9-|
D#|--------------------------0-0-5-7---5-5-5-3-5-------------3-5-6-7-|


        (¿And Just?) Leave You...
00:46
d#|-----------------------------------|
A#|-----------------------------------|
F#|-----------------------------------|
C#|-99-99-99-99-99-99-99-999999999999-|
G#|-99-99-99-99-99-99-99-999999999999-|
D#|-77-77-77-77-77-77-77-777777777777-|


CHORUS #1 (See Note 'A' Above)

Lay Down, Leave...
00:52
d#|----------------------------------------------|
A#|----------------------------------------------|
F#|-------2-22-22-22---------0---------0-222-222-|
C#|-22-55-2-22-22-22---------------------222-222-|
G#|-22-55-0-00-00-00---------------------000-000-|
D#|-00-33------------0-0-5-7---3-3-5-7-----------|
                                           *   *
Lay Down, Sleep...
01:00
d#|------------------------------------------------------------|
A#|------------------------------------------------------------|
F#|-------2-22-22-22---------0---------0-222-222-555555-444444-|
C#|-22-55-2-22-22-22---------------------222-222-555555-444444-|
G#|-22-55-0-00-00-00---------------------000-000-333333-222222-|
D#|-00-33------------0-0-5-7---3-3-5-7-------------------------|
                                           *   *

PRE-VERSE #2

01:10
d#|---------------------------------------|
A#|---------------------------------------|
F#|---------0-----------------------------|
C#|---------------------7-5---5-----5-5-7-|
G#|-------------------------7---7-5-5-5-7-|
D#|-0-0-5-7---5-5-5-3-5-------------3-3-5-|

01:14
d#|---------------------------------------|
A#|---------------------------------------|
F#|---------0-----------------------------|
C#|---------------------7-5---5-----5-4-3-|
G#|-------------------------7---7-5-5-4-3-|
D#|-0-0-5-7---5-5-5-3-5-------------3-2-1-|


VERSE #2

Lay Down, This...
01:18                    01:21
d#|--------------------------------------------------------|
A#|--------------------------------------------------------|
F#|--------------------------------------------------------|
C#|-2-22-22-22-22-22-22-22-0-2-22-22-22-2-12-12\-XX-12-12\-|
G#|-2-22-22-22-22-22-22-22-0-2-22-22-22-2-10-10\-XX-10-10\-|
D#|-0-00-00-00-00-00-00-00-0-0-00-00-00-0------------------|
     [     Palm Mute      ] [ Palm Mute  ]

I Know, I...
01:25                    
d#|-------------------------------------------------------|
A#|-------------------------------------------------------|
F#|-------------------------------------------------------|
C#|-2-22-22-22-22-22-22-22-22-22-22-22-2-12-12\-XX-12-12\-|
G#|-2-22-22-22-22-22-22-22-22-22-22-22-2-10-10\-XX-10-10\-|
D#|-0-00-00-00-00-00-00-00-00-00-00-00-0------------------|
     [            Palm Mute             ]

           So I'll Leave...
01:33
d#|------------------------------------------------------------------|
A#|------------------------------------------------------------------|
F#|-2-22-22-22-22-22-22-22-2---------0-------------------------------|
C#|-2-22-22-22-22-22-22-22-2---------------------7-5---5-----5-7-8-9-|
G#|-0-00-00-00-00-00-00-00-0-------------------------7---7-5-5-7-8-9-|
D#|--------------------------0-0-5-7---5-5-5-3-5-------------3-5-6-7-|
           And I'll Leave...
01:41
d#|--------------------------|
A#|--------------------------|
F#|--------------------------|
C#|-99-99-99-99-99-99-99-99\-|
G#|-99-99-99-99-99-99-99-99\-|
D#|-77-77-77-77-77-77-77-77\-|


CHORUS #2

Lay Down, Leave...
01:45
d#|----------------------------------------------|
A#|----------------------------------------------|
F#|-------2-22-22-22---------0---------0-222-222-|
C#|-22-55-2-22-22-22---------------------222-222-|
G#|-22-55-0-00-00-00---------------------000-000-|
D#|-00-33------------0-0-5-7---3-3-5-7-----------|
                                           *   *
Lay Down, Sleep...
01:53
d#|------------------------------------------------------------|
A#|------------------------------------------------------------|
F#|-------2-22-22-22---------0---------0-222-222-555555-444444-|
C#|-22-55-2-22-22-22---------------------222-222-555555-444444-|
G#|-22-55-0-00-00-00---------------------000-000-333333-222222-|
D#|-00-33------------0-0-5-7---3-3-5-7-------------------------|
                                           *   *

BRIDGE

02:03
d#|--------------------------------------------------|
A#|--------------------------------------------------|
F#|--------------------------------------------------|
C#|-2~~~~~~~~~~~~~~~~~~~~~~~~~~~~~~2\---12---9---7---|
G#|-2~~~~~~~~~~~~~~~~~~~~~~~~~~~~~~2\---10---7---5---|
D#|-0~~~~~~~~~~~~~~~~~~~~~~~~~~~~~~0--0----0---0---0-|
   [Let It Riiiiiiiiiiiiiiiiiiiiing]


SOLO (GUITAR #1)

02:10
d#|------------------------------------------------------------|
A#|------------------------------------------------------------|
F#|-----14b15-14-12-14b15r14-12-14-12-14-15r14-12--------------|
C#|-/14v------------------------------------------14~-14p13p12-|
G#|------------------------------------------------------------|
D#|------------------------------------------------------------|

02:18
d#|------------------------------------------------------------------------|
A#|---------------------------------------------------------15-------------|
F#|----14b15-14-12-14b15r14-12-14-12-14-15r14-12-14b16~14b16~16r14-12-14b15|
C#|-14---------------------------------------------------------------------|
G#|------------------------------------------------------------------------|
D#|------------------------------------------------------------------------|


SOLO (GUITAR #2)

02:10
d#|-----17b18-17-15-17b18r17-15-17-15-17-18r17-15--------------|
A#|-/17v------------------------------------------17~-17p16p15-|
F#|------------------------------------------------------------|
C#|------------------------------------------------------------|
G#|------------------------------------------------------------|
D#|------------------------------------------------------------|

02:18
d#|----17b18-17-15-17b18r17-15-17-15-17-18r17-15-17b19~17b19~19r17-15-17b19|
A#|-17---------------------------------------------------------------------|
F#|------------------------------------------------------------------------|
C#|------------------------------------------------------------------------|
G#|------------------------------------------------------------------------|
D#|------------------------------------------------------------------------|


CHORUS #3

Lay Down, Leave...
02:28
d#|----------------------------------------------|
A#|----------------------------------------------|
F#|-------2-22-22-22---------0---------0-222-222-|
C#|-22-55-2-22-22-22---------------------222-222-|
G#|-22-55-0-00-00-00---------------------000-000-|
D#|-00-33------------0-0-5-7---3-3-5-7-----------|
                                           *   *
Lay Down, Sleep...
02:36
d#|----------------------------------------------|
A#|----------------------------------------------|
F#|-------2-22-22-22---------0---------0-222-222-|
C#|-22-55-2-22-22-22---------------------222-222-|
G#|-22-55-0-00-00-00---------------------000-000-|
D#|-00-33------------0-0-5-7---3-3-5-7-----------|
                                           *   *
Lay Dow-ow-own Before...
02:44
d#|------------------------------------------------------------|
A#|------------------------------------------------------------|
F#|-------2-22-22-22---------0---------0-222-222-555555-444444-|
C#|-22-55-2-22-22-22---------------------222-222-555555-444444-|
G#|-22-55-0-00-00-00---------------------000-000-333333-222222-|
D#|-00-33------------0-0-5-7---3-3-5-7-------------------------|
                                           *   *

EXTRO

02:54
d#|---------------------------------------|
A#|---------------------------------------|
F#|---------0-----------------------------|
C#|---------------------7-5---5-----5-5-7-|
G#|-------------------------7---7-5-5-5-7-|
D#|-0-0-5-7---5-5-5-3-5-------------3-3-5-|

02:58
d#|------------------------------------------------|
A#|------------------------------------------------|
F#|---------0--------------------------------------|
C#|---------------------7-5---5-----5-4-3-22-XXX-22|
G#|-------------------------7---7-5-5-4-3-22-XXX-22|
D#|-0-0-5-7---5-5-5-3-5-------------3-2-1-00-XXX-00|

| *  Palm Mute (Palm Mute Only The Chord Directly Above Asterisk)
| b  Bend To (Push String Up Or Down Within Same Fret To Desired Note)
| r  Release To (Let String Play From A Bent Position To An Unbent Position)
| /  Slide Up (Slide From Current Note To Next Note Or Toward Guitar Body)
| \  Slide Down (Slide From Current Note To Next Note Or Toward Guitar Head)
| h  Hammer-On (Press A Finger Down Quick And Hard To Achieve Next Note)
| p  Pull-Off (Pull Off And Slightly Down To Let Next Note Ring)
| ~  Hold Note (Let Current Note Ring, Vibrato Might Be Assumed)
| +  Harmonic (Lightly Touch String Over A Sweet Spot And Pluck)
| x  Rhythmic Chuck Note (Touch Strings, Dont Push To Board, Strum)
| v  Vibrato (Bend String Up And Down Rapidly, Very Slight Bends)
===============================================================================
            

comments powered by Disqus
↑ Back to top | Priestess Tabs for Lay Down. Lyrics for acoustic guitar and electric guitar. Tablatures and chords are parodies/interpretations of the original songs. You may use it for private study, scholarship, research or language learning purposes only