» » »

Priestess, Lay Down Tabs (ver.2)

Artists:  A B C D E F G H I J K L M N O P Q R S T U V W X Y Z # 

Lay Down Tabs (ver.2)

Priestess Tabs
 Rating:
4/5 (8 votes)
Lay Down lessons Tabs too difficult? Try these video lessons and learn fast
                LAY DOWN
PRIESTESS

p- pull off.
h- hammer on.
x- palm muting (note.) p.m.- palm muting (whole riff.)
b- bend to (17b19 = 17 bent to 19.) r- return.
/- slide up. \- slide down.
v- vibrato.

  Tune ½ step down.
  The vertical dashes (“pipes”) represent measures, just like on a staff. When there are 
dashes on the end of line, the riff continues on the next line. When there are dashes 
the end, the riff if over when the line ends.
  When only a single dash is between two notes you should be able to both downstroke and 
both notes comfortably. Two dashes represent a pause long enough for your hand to come 
a halt. Notes with space between them will require alternate strumming.

Intro
(x3)
d#|----------------------|------------------|
A#|----------------------|------------------|
F#|----------------------|-2p0--0-----------|
C#|---------5------------|----2--2p0--------|
G#|-----0h2----0-0-0---0-|-----------5-5--7-|
D#|-0-0--------------3---|-----------3-3--5-|

(Final)
|----------------------|-----------------|-------------------------|
|----------------------|-----------------|-------------------------|
|----------------------|-2p0--0----------|-------------------------|
|---------5------------|----2--2p0-------|-------------------------|
|-----0h2----0-0-0---0-|-----------5-4-3-|-2-2-xxx-2-2-xxx-2-2-xxx-|
|-0-0--------------3---|-----------3-2-1-|-0-0-xxx-0-0-xxx-0-0-xxx-|

|--------------|
|--------------|
|--------------|
|-99-1212-99-7-|
|-77-1010-77-5-|
|--------------|

Verse (x2)
|-------------|-------------|-------------|---------------------|
|-------------|-------------|-------------|---------------------|
|-------------|-------------|-------------|---------------------|
|-------------|-------------|-------------|-12-12-----12-12-----|
|----22-22-22-|-22-22-22-22-|-22-22-22-22-|-10-10-xxx-10-10-xxx-|
|-0--00-00-00-|-00-00-00-00-|-00-00-00-00-|-------xxx-------xxx-|


Pre-Chorus
|--------------|-------------|----------------------|
|--------------|-------------|----------------------|
|--------------|-------------|----------------------|
|--------------|-------------|---------5------------|
|-7---77-77-77-|-77-77-77-77-|-----0h2----0-0-0---0-|
|-5---55-55-55-|-55-55-55-55-|-0-0--------------3---|

|-----------------|-------------|------------------|
|-----------------|-------------|------------------|
|-2p0--0----------|-------------|------------------|
|----2--2p0-------|-------------|------------------|
|-----------5-7-8-|-9--99-99-99-|-9999999999999999-|
|-----------3-5-6-|-7--77-77-77-|-7777777777777777-|

Don’t play it exactly how it’s written out in the last measure, just play it how it 
right.

Chorus
(x2)
|---------------|--------------|---------------------|-------------|
|---------------|--------------|---------------------|-------------|
|---------------|--------------|---------------------|-------------|
|---------------|--------------|---------5-----------|-------------|
|-22-xxx-55-xxx-|-7---77-77-77-|-----0h2-------0h2-6-|-77-77-77-77-|
|-00-xxx-33-xxx-|-5---55-55-55-|-0-0-------3-3-------|-55-55-55-55-|

(Final)
|---------------------------|
|---------------------------|
|---------------------------|   Repeat main riff, this time with each
|---------------------------|   part only once.
|-1010101010101010-99999999-|
|-8-8-8-8-8-8-8-8--77777777-|

Verse and Chorus again.

Pre-Solo= Strum E5 Power chord thrice, second time with feedback, third time with 
end with last measure of main riff.

Solo
Guitar 1
|----------------------------------------------------------|
|-----/15b-15-12-15b17r15-12v--15-12-15-15b-10-12v--10p8---|
|-/12---------------------------------------------------9--|
|----------------------------------------------------------|
|----------------------------------------------------------|
|----------------------------------------------------------|
|
|Guitar 2
|----------------------------------------------------------|
|-----/10b-10--8-10b12r10--8v--10-8-10-10b--10p8-----------|
|-/9---------------------------------------------9v--9p7---|
|-------------------------------------------------------9--|
|----------------------------------------------------------|
|----------------------------------------------------------|

 Guitar 1
|--------------------------------------------------17--17----------|
|-----/15b-15-12-15br-12v--15----15-17-15---19v--19--19--19-17-19v-|
|-/12-------------------------16---------16------------------------|
|------------------------------------------------------------------|
|------------------------------------------------------------------|
|------------------------------------------------------------------|
|
|Guitar 2
|---------------------------------------------------10--10----------|
|-----/10b-10--8-10br--8~--10----10-12-10---12v~--12--12--12-10-12v-|
|-/9--------------------------12---------12-------------------------|
|-------------------------------------------------------------------|
|-------------------------------------------------------------------|
|-------------------------------------------------------------------|


Chorus (first part x3, then second part)

Outro- same as intro, whammy dive on last chord.
            
Submit corrections

comments powered by Disqus
↑ Back to top | Priestess Tabs for Lay Down. Lyrics for acoustic guitar and electric guitar. Tablatures and chords are parodies/interpretations of the original songs. You may use it for private study, scholarship, research or language learning purposes only