» » »

Priestess, Lay Down Bass tabs (ver.2)

Artists:  A B C D E F G H I J K L M N O P Q R S T U V W X Y Z # 

Lay Down Bass tabs (ver.2)

Priestess Tabs
Rating:
4/5 (4 votes)
Lay Down lessons Tabs too difficult? Try these video lessons and learn fast
                Priestess-Lay Down(Hello Master)

1/2 Step Down
----------------------------------------------------------------------
Main Riff
|--------------------------------------|
|--------5-----------------------------|
|----------0-0-------------------------|
|-0-0-5-7------7-5-7-5-55-55-7-5-3-3-5-|x3

|--------------------------------------------------------------|
|--------5-----------------------------------------------------|
|----------0-0-------------------------------------------------|
|-0-0-5-7------7-5-7-5-55-55-5-3-2-1-0-0-xxx-0-0-xxx-0-0-xxx-0-|

Break

Verse
|-----------------------------------------------------------|
|-----------------------------------------------------------|
|---------------------------------------10-10-----10-10-----|
|-0-00-00-00-00-00-00-00-00-00-00-00-00-------000-------000-|x2

|-------------------------------------------------------------------|
|-----------------------------------5-------------------------------|
|-------------------------------------0-0---------------------------|
|-5-55-55-55-55-55-55-55-5--0-0-5-7-------7-5-7-5-55-55-7-5-3-5-6-7-|

Pre-chorus 1
|---------------------------------------|
|---------------------------------------|
|---------------------------------------|
|-7-77-77-77-77-77-77-77-7-777777777777-|

Chorus
|-------------------------------------------------------------|
|------------------------------------5------------------------|
|--------------------------------------0-0--------------------|
|-0-0----3-3----5-55-55-55-5--0-0-5-7------7-5-7-5-55-55-55-5-|x2

|------------------|
|------------------|
|------------------|
|88888888-77777777-|

Main Riff (Just First Half x2)

Verse

Pre-chorus 2
|--------------------------|
|--------------------------|
|--------------------------|
|-7-77-77-77-77-77-77-7-7\-|

Chorus

Bridge

|-----|
|-----|
|-----|
|-0~~~|

Solo
|-----------------------------------------------------------|
|-----------------------------------------------------------|
|---------------------------------------10-10-----10-10-----|
|-0-00-00-00-00-00-00-00-00-00-00-00-00-------000-------000-|

|-----------------------------------------------------------|
|-----------------------------------------------------------|
|-----------------------------------------------------------|
|-0-00-00-00-00-00-00-00-00-00-00-00-00-5-55-55-55-5-5555555|

Chorus (first part x3, then second part)

Outro
|--------------------------------------|
|--------5-----------------------------|
|----------0-0-------------------------|
|-0-0-5-7------7-5-7-5-55-55-7-5-3-3-5-|

|---------------------------------------------------|
|--------5------------------------------------------|
|----------0-0--------------------------------------|
|-0-0-5-7------7-5-7-5-55-55-7-5-3-2-1-0-0-xxx-0-0--|
            

comments powered by Disqus
↑ Back to top | Priestess Bass for Lay Down. Lyrics for acoustic guitar and electric guitar. Tablatures and chords are parodies/interpretations of the original songs. You may use it for private study, scholarship, research or language learning purposes only