>
 >
Lay Down

Lay Down Bass Tabs

Priestess - Lay Down chords, tabs, tablatures, lyrics

Guitar lessons | Add/correct | Request | Top 50 tabs Artists:  A B C D E F G H I J K L M N O P Q R S T U V W X Y Z 0-9

Lay Down Bass Tabs – Priestess

CD, Sheet music, Poster

Do you like Lay Down? Share with your friends now
Bass TabsBass Tabs v2Bass Tabs v3Bass Tabs v4ChordsTabsTabs v2Tabs v3Tabs v4Ukulele
                                   Lay Down                                     


                                                                       Priestess
Bass



                Q    E  E  E  E     Q    E  E  E  E     E  E  E  E  E  E   
F#||-------||--------------------|-------------------|--------------------|
C#||-------||*----------------5--|-------------------|--7--5-----5--------|
G#||-------||*-------------------|--0----0-----------|--------------------|
D#||-------||---0----0--5--7-----|----------7--5--7--|--------7-----7--5--|


  Q    Q    Q     3x  Q    E  E  E  E     Q    E  E  E  E   
------------------||-------------------|-------------------|
-----------------*||----------------5--|-------------------|
-----------------*||-------------------|--0----0-----------|
--3----3----5-----||--0----0--5--7-----|----------7--5--7--|


  E  E  E  E  E  E     Q    Q    Q       Q    Q    Q        Q     H          
--------------------|-----------------|-----------------|-------------------|
--7--5-----5--------|-----------------|-----------------|-------------------|
--------------------|-----------------|-----------------|-------------------|
--------7-----7--5--|--3----2----1----|--0----0---------|--12----12\--------|


  Q    Q    Q       Q    Q    Q                 Q    E  Q    E   
-----------------|-----------------|-------||-------------------|
-----------------|-----------------|-------||*------------------|
-----------------|-----------------|-------||*------------------|
--0----0---------|--0--------------|-------||---0----0--0----0--|


  Q    E  Q    E     Q    E  Q    E     Q    E  Q    E     Q    E  Q    E   
------------------|------------------|------------------|------------------|
------------------|------------------|------------------|------------------|
------------------|------------------|------------------|------------------|
--0----0--0----0--|--0----0--0----0--|--0----0--0----0--|--0----0--0----0--|


  Q    E  Q    E      Q     H             Q     H              Q    E  Q    E   
------------------|-------------------|--------------------||------------------|
------------------|-------------------|-------------------*||------------------|
------------------|-------------------|-------------------*||------------------|
--0----0--0----0--|--15----15\--------|--15----15\---------||--5----5--5----5--|


  Q    E  Q    E     Q    E  Q    E     Q    E  Q    E     Q    E  E  E  E   
------------------|------------------|------------------|-------------------|
------------------|------------------|------------------|----------------5--|
------------------|------------------|------------------|-------------------|
--5----5--5----5--|--5----5--5----5--|--5----5--5----5--|--0----0--5--7-----|


  Q    E  E  E  E     E  E  E  E  E  E     Q    Q    Q       Q    E  Q    E   
-------------------|--------------------|-----------------|------------------|
-------------------|--7--5-----5--------|-----------------|------------------|
--0----0-----------|--------------------|-----------------|------------------|
----------7--5--7--|--------7-----7--5--|--3----5----6----|--7----7--7----7--|


  Q    E  Q    E     Q    E  Q    E     Q    E  E  E  E     E  E  E  E  E  E   
------------------|------------------|-------------------|--------------------|
------------------|------------------|-------------------|--9--9--9--9--9--9--|
------------------|------------------|----------7--9--9--|--------------------|
--7----7--7----7--|--7----7--7----7--|--7----7-----------|--------------------|


  E  E  E  E  E  E      Q     H             Q     H            Q    E  Q    E   
--------------------|-------------------|-------------------|------------------|
--9--9--9--9--9--9--|-------------------|-------------------|------------------|
--------------------|-------------------|-------------------|------------------|
--------------------|--12----12\--------|--15----15\--------|--5----5--5----5--|


  Q.     Q.         Q    E  E  E  E     Q    E  E  E  E     Q    E  Q    E   
-----------------|-------------------|-------------------|------------------|
--7------7\------|-------------------|-------------------|------------------|
-----------------|----------------2--|----------------5--|------------------|
-----------------|--0----0--3--5-----|--3----3--5--7-----|--5----5--5----5--|


  Q    E  Q    E      Q     H            Q    H            Q    E  Q    E   
------------------|-------------------|-----------------|------------------|
------------------|-------------------|-----------------|------------------|
------------------|-------------------|-----------------|------------------|
--5----5--5----5--|--12----12\--------|--3----3\--------|--5----5--5----5--|


  Q    E  Q    E     Q    E  E  E  E     Q    E  E  E  E     Q    E  Q    E   
------------------|-------------------|-------------------|------------------|
------------------|-------------------|-------------------|------------------|
------------------|----------------2--|----------------5--|------------------|
--5----5--5----5--|--0----0--3--5-----|--3----3--5--7-----|--5----5--5----5--|


  Q    E  Q    E     E  E  E  E  E  E     E  E  E  E  E  E   
------------------|--------------------|--------------------|
------------------|--------------------|--------------------|
------------------|--------------------|--------------------|
--5----5--5----5--|--8--8--8--8--8--8--|--7--7--7--7--7--7--|


  Q    E  E  E  E     Q    E  E  E  E     E  E  E  E  E  E     Q    Q    Q     
-------------------|-------------------|--------------------|-----------------|
----------------5--|-------------------|--7--5-----5--------|-----------------|
-------------------|--0----0-----------|--------------------|-----------------|
--0----0--5--7-----|----------7--5--7--|--------7-----7--5--|--3----3----5----|


  Q    E  E  E  E     Q    E  E  E  E     E  E  E  E  E  E     Q    Q    Q     
-------------------|-------------------|--------------------|-----------------|
----------------5--|-------------------|--7--5-----5--------|-----------------|
-------------------|--0----0-----------|--------------------|-----------------|
--0----0--5--7-----|----------7--5--7--|--------7-----7--5--|--3----2----1----|


    Q    E   Q.         E    E   E   Q.        Q    E  Q    E   
|-------------------|-----------------------|------------------|
|*------------------|-----------------------|------------------|
|*------------------|-----------------------|------------------|
|---0----0--12------|--10h--12--12--12------|--0----0--0----0--|


  Q    E   E    E    E     Q    E  Q    E     Q    E  Q    E   
------------------------|------------------|------------------|
------------------------|------------------|------------------|
------------------------|------------------|------------------|
--0----0--12p--11p--10--|--0----0--0----0--|--0----0--0----0--|


   Q     H             Q     H              Q    E  Q    E     Q    E  Q    E   
-------------------|--------------------||------------------|------------------|
-------------------|-------------------*||------------------|------------------|
-------------------|-------------------*||------------------|------------------|
--15----15\--------|--15----15\---------||--5----5--5----5--|--5----5--5----5--|


  E  E  Q    Q       Q    Q    Q       Q    E  E  E  E     Q    E  E  E  E   
------------------|-----------------|-------------------|-------------------|
------------------|-----------------|----------------5--|-------------------|
------------------|-----------------|-------------------|--0----0-----------|
--8--8--7----5----|--7----5----3----|--0----0--5--7-----|----------7--5--7--|


  E  E  E  E  E  E     Q    Q    Q       Q    E  Q    E     Q    E  Q    E   
--------------------|-----------------|------------------|------------------|
--7--5-----5--------|-----------------|------------------|------------------|
--------------------|-----------------|------------------|------------------|
--------7-----7--5--|--3----5----6----|--7----7--7----7--|--7----7--7----7--|


  Q    E  Q    E     Q    E  Q    E       Q     H             Q     H          
------------------|-------------------|-------------------|-------------------|
------------------|-------------------|-------------------|-------------------|
------------------|-------------------|-------------------|-------------------|
--7----7--7----7--|--7----7--7----7\--|--12----12\--------|--15----15\--------|


  Q    E  Q    E     Q    E  Q    E     Q    E  E  E  E     Q    E  E  E  E   
------------------|------------------|-------------------|-------------------|
------------------|------------------|-------------------|-------------------|
------------------|------------------|----------------2--|----------------5--|
--5----5--5----5--|--5----5--5----5--|--0----0--3--5-----|--3----3--5--7-----|


  Q    E  Q    E     Q    E  Q    E      Q     H            Q    H          
------------------|------------------|-------------------|-----------------|
------------------|------------------|-------------------|-----------------|
------------------|------------------|-------------------|-----------------|
--5----5--5----5--|--5----5--5----5--|--12----12\--------|--3----3\--------|


  Q    E  Q    E     Q    E  Q    E     Q    E  E  E  E     Q    E  E  E  E   
------------------|------------------|-------------------|-------------------|
------------------|------------------|-------------------|-------------------|
------------------|------------------|----------------2--|----------------5--|
--5----5--5----5--|--5----5--5----5--|--0----0--3--5-----|--3----3--5--7-----|


  Q    E  Q    E     Q    E  Q    E     E  E  E  E  E  E     E  E  E  E  E  E   
------------------|------------------|--------------------|--------------------|
------------------|------------------|--------------------|--------------------|
------------------|------------------|--------------------|--------------------|
--5----5--5----5--|--5----5--5----5--|--8--8--8--8--8--8--|--7--7--7--7--7--7--|


  H.              H.              H.              H.              H.            
---------------|---------------|---------------|---------------|---------------|
---------------|---------------|---------------|---------------|---------------|
---------------|---------------|---------------|---------------|---------------|
--0------------|--L------------|--L------------|--L------------|--L------------|


  H.               H.               H        Q       Q    E  Q    E   
---------------|-----------------|----------------|------------------|
---------------|-----------------|----------------|------------------|
---------------|-----------------|----------------|------------------|
--L------------|--12\------------|--L-------------|--0----0--0----0--|


  Q    E  Q    E     Q    E  Q    E     Q    E  Q    E     Q    E  Q    E   
------------------|------------------|------------------|------------------|
------------------|------------------|------------------|------------------|
------------------|------------------|------------------|------------------|
--0----0--0----0--|--0----0--0----0--|--0----0--0----0--|--0----0--0----0--|


  Q    E  Q    E     Q    H            Q    H            Q    E   Q.      
------------------|-----------------|-----------------|------------------|
------------------|-----------------|-----------------|------------------|
------------------|-----------------|-----------------|------------------|
--0----0--0----0--|--3----3\--------|--3----3\--------|--0----0--12------|


   E    E   E   Q.        Q    E  Q    E     Q    E   E    E    E   
-----------------------|------------------|------------------------|
-----------------------|------------------|------------------------|
-----------------------|------------------|------------------------|
--10h--12--12--12------|--0----0--0----0--|--0----0--12p--11p--10--|


  Q    E  Q    E     Q    E  Q    E     Q    E  Q    E     Q    E  Q    E   
------------------|------------------|------------------|------------------|
------------------|------------------|------------------|------------------|
------------------|------------------|------------------|------------------|
--0----0--0----0--|--0----0--0----0--|--7----7--7----7--|--7----7--7----7--|


  E  E  E  E  E  E     E  E  E  E  E  E      Q     H          
--------------------|--------------------|-------------------|
--------------------|--------------------|-------------------|
--------------------|--------------------|-------------------|
--7--7--7--7--7--7--|--7--7--7--7--7--7--|--12----12\--------|


   Q     H            Q    E  Q    E     Q.     Q.         Q    E  E  E  E   
-------------------|------------------|-----------------|-------------------|
-------------------|------------------|--7------7\------|-------------------|
-------------------|------------------|-----------------|----------------2--|
--15----15\--------|--5----5--5----5--|-----------------|--0----0--3--5-----|


  Q    E  E  E  E     Q    E  Q    E     Q    E  Q    E      Q     H          
-------------------|------------------|------------------|-------------------|
-------------------|------------------|------------------|-------------------|
----------------5--|------------------|------------------|-------------------|
--3----3--5--7-----|--5----5--5----5--|--5----5--5----5--|--12----12\--------|


  Q    H            Q    E  Q    E     E  E  Q    Q       Q    E  E  E  E   
-----------------|------------------|------------------|-------------------|
-----------------|------------------|------------------|-------------------|
-----------------|------------------|------------------|----------------2--|
--3----3\--------|--5----5--5----5--|--8--8--7----5----|--0----0--3--5-----|


  Q    E  E  E  E     Q    E  Q    E     Q    E  Q    E     Q    Q    Q     
-------------------|------------------|------------------|-----------------|
-------------------|------------------|------------------|-----------------|
----------------5--|------------------|------------------|-----------------|
--3----3--5--7-----|--5----5--5----5--|--5----5--5----5--|--0----0---------|


  Q    Q    Q       Q    E  Q    E     Q    E  Q    E     Q    E  E  E  E   
-----------------|------------------|------------------|-------------------|
-----------------|------------------|------------------|-------------------|
-----------------|------------------|------------------|----------------2--|
--3----3---------|--5----5--5----5--|--5----5--5----5--|--0----0--3--5-----|


  Q    E  E  E  E     Q    E  Q    E     Q    E  Q    E     E  E  E  E  E  E   
-------------------|------------------|------------------|--------------------|
-------------------|------------------|------------------|--------------------|
----------------5--|------------------|------------------|--------------------|
--3----3--5--7-----|--5----5--5----5--|--5----5--5----5--|--8--8--8--8--8--8--|


  E  E  E  E  E  E     Q    E  E  E  E     Q    E  E  E  E   
--------------------|-------------------|-------------------|
--------------------|----------------5--|-------------------|
--------------------|-------------------|--0----0-----------|
--7--7--7--7--7--7--|--0----0--5--7-----|----------7--5--7--|


  E  E  E  E  E  E     Q    Q    Q       Q    E  E  E  E     Q    E  E  E  E   
--------------------|-----------------|-------------------|-------------------|
--7--5-----5--------|-----------------|----------------5--|-------------------|
--------------------|-----------------|-------------------|--0----0-----------|
--------7-----7--5--|--3----3----5----|--0----0--5--7-----|----------7--5--7--|


  E  E  E  E  E  E     Q    Q    Q       Q    Q    Q        Q     H           
--------------------|-----------------|-----------------|-------------------||
--7--5-----5--------|-----------------|-----------------|-------------------||
--------------------|-----------------|-----------------|-------------------||
--------7-----7--5--|--3----2----1----|--0----0---------|--12----12\--------||




Duration Legend
---------------
W - whole
H - half
Q - quarter
E - 8th
S - 16th
T - 32nd
X - 64th
. - note dotted
|-n-|  - n-tuplets


Tablature Legend
----------------
L - tied note
x - dead note
g - grace note
(n) - ghost note
> - accentuded note
NH - natural harmonic
AH - artificial harmonic
TH - tapped harmonic
SH - semi harmonic
PH - pitch harmonic
h - hammer on
p - pull off
b - bend
br - bendRelease
pb - preBend
pbr - preBendRelease
brb - bendReleaseBend
\n/ - tremolo bar dip
\n - tremolo bar dive
-/n - tremolo bar Release up
/n\ - tremolo bar inverted dip
/n - tremolo bar return
-\n - tremolo bar Release down
S - shift slide
s - legato slide
/ -  slide into from below or out of upwards
\ -  slide into from above or out of downwards
~ - vibrato
W - wide vibrato
tr - trill
TP - tremolo picking
T - tapping
S - slap
P - pop
< - fade in
^ - brush up
v - brush down





Comments


Popular Priestess tabs & chords
Everything That You Are Bass Tabs
Lay Down 1 Bass Tabs
Living Like A Dog Bass Tabs
Performance Bass Tabs
Talk To Her Bass Tabs
Talk To Her Drum Tabs
Communicating Via Eyes Tabs
Lay Down 1 Tabs
Lay Down 3 Tabs
Lay Down Ukulele


Song lyrics



↑ Back to top | Tablatures and chords are parodies/interpretations of the original songs. You may use it for private study, scholarship, research or language learning purposes only
© 2014 AZChords.com Contact us | Privacy policy | DMCA | Add/correct tabs | Request tabs | Top 50 tabs