» » »

Lay Down Bass tabs (ver.3)

Artists:  A B C D E F G H I J K L M N O P Q R S T U V W X Y Z # 

Lay Down Bass tabs (ver.3)

Priestess
Rating:
4/5 (3 votes)

Hard to play? Try these video lessons and learn fast.
                Priestess- Lay Down
Converted By Larzo91

This tab is supposed to be tuned a 1/2 Step Down fro, the original tuning on the bas. I 
the tab to a 5-string bass so you don’t need to tune the bass down. Enjoy!

###########################################################################

Main Riff
G|--------------------------------------|
D|--------4-----------------------------|
A|--------------------------------------|
E|-----4-6--4-4-6-4-6-4-44-44-6-4-2-2-4-|
B|-4-4----------------------------------|x3

G|--------------------------------------------------------------|
D|--------4-----------------------------------------------------|
A|--------------------------------------------------------------|
E|-----4-6--4-4-6-4-6-4-44-44-4---------------------------------|
B|-4-4--------------------------7-6-5-4-4-xxx-4-4-xxx-4-4-xxx-4-|

Break

Verse
G|----------------------------------------------------------|
D|---------------------------------------4-4------4--4------|
A|----------------------------------------------------------|
E|----------------------------------------------------------|
B|-4-44-44-44-44-44-44-44-44-44-44-44-44------444-------444-|x2

G|-------------------------------------------------------------------|
D|-----------------------------------4-------------------------------|
A|-------------------------------------------------------------------|
E|-4-44-44-44-44-44-44-44-4------4-6---4-4-6-4-6-4-44-44-6-4-2-4-5-6-|
B|---------------------------4-4-------------------------------------|

Pre-chorus 1
G|---------------------------------------|
D|---------------------------------------|
A|---------------------------------------|
E|-6-66-66-66-66-66-66-66-6-666666666666-|
B|---------------------------------------|

Chorus
G|-------------------------------------------------------------|
D|------------------------------------4------------------------|
A|-------------------------------------------------------------|
E|--------2-2----4-44-44-44-4--4-4-4-6--4-4-6-4-6-4-44-44-44---|
B|-4-4---------------------------------------------------------|x2

G|------------------|
D|------------------|
A|------------------|
E|77777777-66666666-|
B|------------------|

Main Riff (Just First Half x2)

Verse (Again)

Pre-chorus 2
G|--------------------------|
D|--------------------------|
A|--------------------------|
E|-6-66-66-66-66-66-66-6-6\-|
B|--------------------------|

Chorus

Bridge

G|-----|
D|-----|
A|-----|
E|-----|
B|-4~~~|

Bass on Guitar Solo
G|----------------------------------------------------------|
D|---------------------------------------4--4-----4--4------|
A|----------------------------------------------------------|
E|----------------------------------------------------------|
B|-4-44-44-44-44-44-44-44-44-44-44-44-44------444-------444-|

G|-----------------------------------------------------------|
D|-----------------------------------------------------------|
A|-----------------------------------------------------------|
E|---------------------------------------4-44-44-44-4-4444444|
B|-4-44-44-44-44-44-44-44-44-44-44-44-44---------------------|

Chorus (first part x3, then second part)

Outro
G|--------------------------------------|
D|--------4-----------------------------|
A|--------------------------------------|
E|-----4-6--4-4-6-4-6-4-44-44-6-4-----4-|
B|-4-4----------------------------7-7---|

G|---------------------------------------------------|
D|--------4------------------------------------------|
A|---------------------------------------------------|
E|-----4-6--4-4-6-4-6-4-44-44-6-4--------------------|
B|-4-4----------------------------7-6-5-4-4-xxx-4-4--|
            
Hard to play? Try these video lessons and learn fast. | Correct




comments powered by Disqus
↑ Back to top | Tablatures and chords are parodies/interpretations of the original songs. You may use it for private study, scholarship, research or language learning purposes only