» » »

Powderfinger, Bless My Soul Bass tabs (ver.1)

Artists:  A B C D E F G H I J K L M N O P Q R S T U V W X Y Z # 

Bless My Soul Bass tabs (ver.1)

Powderfinger Tabs
 Rating:
4/5 (4 votes)
Bless My Soul lessons Tabs too difficult? Try these video lessons and learn fast
                

Tuning: E A D G

Intro: x2
|----------------------------|-----------------------|
|----------------------------|-----------------------|
|-/10-11-----10-11—11~~------|-10-11-----10-11—11~~--|
|----------------------------|-----------------------|

|----------------------|----------------------|
|--------------8-88-----------------8-88----|
|------6-h-8-----------|------6-h-8-----------|
|--66------------------|--66------------------|


Verse: x 4
|--------------------------|-----------------------|
|--------------------------|-----------------------|
|--10-11-----10-11----11~~-|--10-11-----10-11—11~~-|
|--------------------------|-----------------------|

|-----------------------------------------------|
|-------8-----------8-----------8-------6-8-|
|-----------1--------------1-----------1--------|
|---6-------------------------------------------|

Pre chorus: (Bass not playing this, but you can if u wanna be cool) x1
|--------|-----------|----------|---------|
|--------|-----------|----------|---------|
|--6~~---|---6--4---|---6--3--|--6-/-2--|
|--------|-----------|----------|---------|

(you do play this but)
|-------------------------|
|-------------------------|
|--1111111111111111-------|
|-------------------------|


Chorus: x2
|---------------------------------------------------------------------|
|---------------------------------------------------------------------|
|----------------------------3-4-3---6-6-6-6-6-6-6-6------------------|
|-1-1-1-1-1-1-1-1-4-4-4-4-4-4-------------------------6-6-6-6-6-6-6-6-|

|----------------------------------------------------------------------|
|----------------------------------------------------------------------|
|----------------------------------------------------/1313131313131313-|
|-1-1-1-1-1-1-1-1-4-4-4-4-4-4-6-6-6-6-6-6-6-6-6-6-6-6------------------|

Verse: x 4
|--------------------------|-----------------------|
|--------------------------|-----------------------|
|--10-11-----10-11----11~~-|--10-11-----10-11—11~~-|
|--------------------------|-----------------------|



|-----------------------------------------------|
|-------8-----------8-----------8-------6-8-|
|-----------1--------------1-----------1--------|
|---6-------------------------------------------|

Pre chorus: (Still don’t play these 4 bars) x1
|--------|-----------|----------|---------|
|--------|-----------|----------|---------|
|--6~~---|---6--4---|---6--3--|--6-/-2--|
|--------|-----------|----------|---------|

(play this but)
|-------------------------|
|-------------------------|
|--1111111111111111-------|
|-------------------------|

Chorus: x2
|---------------------------------------------------------------------|
|---------------------------------------------------------------------|
|----------------------------3-4-3---6-6-6-6-6-6-6-6------------------|
|-1-1-1-1-1-1-1-1-4-4-4-4-4-4-------------------------6-6-6-6-6-6-6-6-|

|----------------------------------------------------------------------|
|----------------------------------------------------------------------|
|----------------------------------------------------------------------|
|-1-1-1-1-1-1-1-1-4-4-4-4-4-4-6-6-6-6-6-6-6-6-6-6-6-6--6-6-6-6-6-6-6-6-|

Guitar Solo: x2
|----------------------------|-----------------------|
|----------------------------|-----------------------|
|-/10-11-----10-11—11~~------|-10-11-----10-11—11~~--|
|----------------------------|-----------------------|

|----------------------|----------------------|
|--------------8-88---|-------------8-88----|
|------6-h-8-----------|------6-h-8-----------|
|--66------------------|--66------------------|


Bridge: x 1
|---5-6---------5-6--------5-6-------------|
|--------8-6~--------8-6~------8-6—3-1----|
|------------------------------------------|
|------------------------------------------|


Outro: x 6 ( after that keep playing till in fades out completely)
|-----------------------------------------------------------------|
|-----------------------------------------------------------------|
|---------------------------------6-6-6-6-6-6-6-6-----------------|
|-1-1-1-1-1-1-1-1/4-4-4-4-4-4-4-4-----------------6-6-6-6-6-6-6-6-|
            
Submit corrections

comments powered by Disqus
↑ Back to top | Powderfinger Bass for Bless My Soul. Lyrics for acoustic guitar and electric guitar. Tablatures and chords are parodies/interpretations of the original songs. You may use it for private study, scholarship, research or language learning purposes only