» » »

Powderfinger, Black Tears Tabs (ver.1)

Artists:  A B C D E F G H I J K L M N O P Q R S T U V W X Y Z # 

Black Tears Tabs (ver.1)

Powderfinger Tabs
Rating:
5/5 (4 votes)
Hard to play? Try these video lessons and learn fast.
                Black Tears..


1ST VERSE CHORDS:
D5 C5 G5 D5
E-|-----|-----|----|-----|
B-|-----|-----|----|-----|
G-|-----|-----|----|-----|
D-|-12--|-10--|-5--|-12--|
A-|-12--|-10--|-5--|-12--|(x 2)
E-|-10--|-8---|-3--|-10--|


PRE CHORUS CHORDS:
Em F C C D5 Em F#5 G
E-|----|------|----|----|----|--------|-3--|
B-|-8--|--10--|-5--|-5--|----|-8------|-3--|
G-|-9--|--10--|-5--|-5--|-7--|-9--10--|-0--|
D-|-9--|--10--|-5--|-5--|-7--|-9--10--|-0--|
A-|-7--|--8---|-3--|-3--|-5--|-7--9---|-2--|
E-|----|------|----|----|----|--------|-3--|


CHORUS:
C G F#/G Em Dsus4
E-|------0--0-0-0-0--0-0-0-0--0-0-0-0--3--3-3-3-3--3-3-3-0--0-0-0-0--0-0-0-|
B-|------1--1-1-1-1--1-1-1-1--1-1-1-1--3--3-3-3-3--3-3-3-0--0-0-0-3--3-3-3-|
G-|------0--0-0-0-0--0-0-0-0--0-0-0-0--0--0-0-0-0--0-0-0-0--0-0-0-2--2-2-2-|
D-|------2--2-2-2-2--2-2-2-2--2-2-2-2--0--0-0-0-0--0-0-0-2--2-2-2-0--0-0-0-|
A-|------0-2-3--3-3-3-3--3-3-3-3--3-3-3-3--2--2-2-2-0--0-0-0-2--2-2-2------|
E-|-----------------------------------------3--3-3-3-2--2-2-2-0--0-0-0-----|


F C G
E-|-1--1-1-1-1--0--0-0-0-0--3--3-3-3-3--3-3-3-3--3-3-3-3----|
B-|-1--1-1-1-1--1--1-1-1-1--3--3-3-3-3--3-3-3-3--3-3-3-3----|
G-|-2--2-2-2-2--0--0-0-0-0--0--0-0-0-0--0-0-0-0--0-0-0-0----|
D-|-3--3-3-3-3--2--2-2-2-2--0--0-0-0-0--0-0-0-0--0-0-0-0----|
A-|-3--3-3-3-3--3--3-3-3-3--2--2-2-2-2--2-2-2-2--2-2-2-2----|
E-|-1--1-1-1-1----------------3--3-3-3-3--3-3-3-3--3-3-3-3--|


BRIDGE CHORDS:
D# F G
E-|----|-----|-3--|
B-|-8--|-10--|-3--|
G-|-8--|-10--|-0--|
D-|-8--|-10--|-0--|
A-|-6--|-8---|-2--|(x 2)
E-|----|-----|-3--|


Chorus Repeated

Verse Chords again x 2
            

comments powered by Disqus
↑ Back to top | Powderfinger Tabs for Black Tears. Lyrics for acoustic guitar and electric guitar. Tablatures and chords are parodies/interpretations of the original songs. You may use it for private study, scholarship, research or language learning purposes only