» » »

P.O.D., The Messenjah Bass tabs (ver.1)

Artists:  A B C D E F G H I J K L M N O P Q R S T U V W X Y Z # 

The Messenjah Bass tabs (ver.1)

P.O.D. Tabs
 Rating:
4/5 (4 votes)
The Messenjah lessons Tabs too difficult? Try these video lessons and learn fast
                Tuning: B,E,A,D,G

Intro:
G/------------------------------------------------------------------------|
D/------------------------------------------------------------------------|
A/------------------------------------------------------------------------|
E/------------------------------------------------------------------------|
B/--5-5-5-5--5-5-5--8-8-8--8-8---8-8----3-3-3--3--3-3---3--3--3-3---3--3--|


Verse:
G/---------------------------------------------|
D/-----0h2-------2-2---------0h2--------2-2----|
A/---------------------------------------------|
E/-0-0-------0-0--------0-0--------0-0---------|
B/---------------------------------------------|


Intro to the chorus: (..I am the Messenjah..)
G/-----------------------------------------------|
D/-----------------------------------------------|
A/-----------------------------------------------|
E/-------------3-3-3-------------------5-5-5-----|
B/--5-5-5------------------5-5-5-----------------|

Chorus:
G/--------------------------------------------------------------------------------|
D/--------------------------------------------------------------------------------|
A/--------------------------------------------------------------------------------|
E/--------------------------------------------------------------------------------|
B/-5-5--5--5-5--5-5-5---8-8--8--8--8--8----3-3--3---3--3-3--3--3---3--3---3---3---|


Bridge:
G/----------------------------|
D/----------------------------|
A/----------------------------|
E/-0----0-0----0-0h3-3-3------|
B/----------------------------|


Ending:
G/------------------------------------------------------------|
D/------------------------------------------------------------|
A/------------------------------------------------------------|
E/-0-0-0-0/12-12-12-12-12-12-12-12-12-12-12-----------0-------|
B/------------------------------------------------------------|
            
Submit corrections

comments powered by Disqus
↑ Back to top | P.O.D. Bass for The Messenjah. Lyrics for acoustic guitar and electric guitar. Tablatures and chords are parodies/interpretations of the original songs. You may use it for private study, scholarship, research or language learning purposes only