» » »

P.O.D., The Messenjah Tabs (ver.3)

Artists:  A B C D E F G H I J K L M N O P Q R S T U V W X Y Z # 

The Messenjah Tabs (ver.3)

P.O.D. Tabs
Rating:
0/5 (0 votes)
The Messenjah lessons Tabs too difficult? Try these video lessons and learn fast
                P.O.D. The Messenjah


Intro

E-------------------------------------------------------------
B---8-8-8-8-8-8-8\3-3-3-3-3-3-3/8-8-8-8-8-8-8/10-10-10-10-10--
G---9-9-9-9-9-9-9\4-4-4-4-4-4-4/9-9-9-9-9-9-9/11-11-11-11-11--
D-------------------------------------------------------------
A-------------------------------------------------------------
D-------------------------------------------------------------

Verse

E-------------------------------------------------------------------------
B-------------------------------------------------------------------------
G-------------------------------------------------------------------------
D-----------44-44-44-44-4-4-77-77-77-77-7-7-22-22-22-22-2-2-22-22-22-2-2--
A-----------44-44-44-44-4-4-77-77-77-77-7-7-22-22-22-22-2-2-22-22-22-2-2--
D---0-2-4-0-22-22-22-22-2-2-55-55-55-55-5-5-00-00-00-00-0-0-00-00-00-0-0--

Verse (Ending)

E---------------
B---------------
G---------------
D------------4--
A------------4--
D--0-2-4-2-0-2--

Chorus

E-------------------------
B-------------------------
G-----5p4--------5p4------
D--44-----5p3-77-----5p3--
A--44---------77----------
D--22---------55----------

E----------------------------
B----------------------------
G----------------------------
D--9-22-9-22-9-22------------
A--7-22-7-22-7-22-9/10\9-7-9-
D----------------------------


Listen to the song
            

comments powered by Disqus
↑ Back to top | P.O.D. Tabs for The Messenjah. Lyrics for acoustic guitar and electric guitar. Tablatures and chords are parodies/interpretations of the original songs. You may use it for private study, scholarship, research or language learning purposes only