» » »

The Messenjah Tabs (ver.2)

Artists:  A B C D E F G H I J K L M N O P Q R S T U V W X Y Z # 

The Messenjah Tabs (ver.2)

P.O.D.
Rating:
0/5 (0 votes)

Tabs too difficult? Try these video lessons and learn fast.
                This is a cool song from their new album Satellite.  I saw that there was only 2 tabs tabbed out by P.O.D in this archive so this is why I tabbed out this song.  If you can tab out some of their other songs.

Drop D Tuning

Legend:
p=Pull Off
^=Bend Up
\=Slide Down
/=Slide Up

Intro
E--------------------------------------------------------------
B---8-8-8-8-8-8-8\3-3-3-3-3-3-3/8-8-8-8-8-8-8/10-10-10-10-10---
G---9-9-9-9-9-9-9\4-4-4-4-4-4-4/9-9-9-9-9-9-9/11-11-11-11-11---
D--------------------------------------------------------------
A--------------------------------------------------------------
D--------------------------------------------------------------

Verse (I am just guessing on how many times he plays the chords, listen to the song to get it perfect)
E--------------------------------------------------
B--------------------------------------------------
G--------------------------------------------------
D-----------2--22-222222-55-5555-00-0000-00-0000---
A-----------2--22-222222-55-5555-00-0000-00-0000---
D---0-2-4-0-2--22-222222-55-5555-00-0000-00-0000---

Verse 2
E---------------------------------
B---------------------------------
G---------------------------------
D-----------2---------------------
A-----------2-(let ring)----------
D---0-2-4-0-2---------------------

Verse 3 (Play two times after verse 2, listen to the cd to get
the perfect timing.)
E----------------
B--5-6---5-------
G------5---------
D----------------
A----------------
D----------------

Chorus
E------------------------------------
B------------------------------------
G--------5p4-----------5p4-----------
D---2-2------5p3--5-5------5p3-------
A---2-2-----------5-5----------------
D---2-2-----------5-5----------------

Play After Chorus (Listen to the cd for timing.)
E-------------------
B-------------------
G-------------------
D--222222-5-0-------
A--222222-5-0-------
D--222222-5-0-------

Interlude
E----------------------------------------
B----------------------------------------
G---9-------9-------9--------------------
D---x--0-0--x--0-0--x--0-0---------------
A---7--0-0--7--0-0--7--0-0--9^-7-9-------
D------0-0-----0-0-----0-0---------------
            
Tabs too difficult? Try these video lessons and learn fast.


comments powered by Disqus
↑ Back to top | Tablatures and chords are parodies/interpretations of the original songs. You may use it for private study, scholarship, research or language learning purposes only