>
 >
Southtown 1

Southtown 1 Guitar Tabs

P.O.D. - Southtown 1 chords, tabs, tablatures, lyrics

Guitar lessons | Add/correct | Request | Top 50 tabs Artists:  A B C D E F G H I J K L M N O P Q R S T U V W X Y Z 0-9

Southtown 1 Guitar Tabs – P.O.D.

CD, Sheet music, Poster

Do you like Southtown 1? Share with your friends now
Bass TabsBass Tabs v2Drum TabsTabsTabs v2Tabs v3Tabs v4Tabs v5Tabs v6Tabs v7Tabs v8Tabs v9Tabs v10
Dropped D tuning 
Intro: 4x (On an acoustic. And it has a, I guess, wind effect on it. My pedal 
calls it a PHA., for short.) 
E--------------------------------------------------------------------------------- 

B--------------------------------------------------------------------------------- 

G-2-2-2-2-----------------------------2-2-2-2------------------------------- 
D-2-2-2-2-3-3-3-3-3-3-3-3-3-3-3-3-2-2-2-2-0-0-0-0-0-0-0-0-0-0-0-0- 
A-0-0-0-0-3-3-3-3-3-3-3-3-3-3-3-3-0-0-0-0-0-0-0-0-0-0-0-0-0-0-0-0- 
E-----------3-3-3-3-3-3-3-3-3-3-3-3-----------0-0-0-0-0-0-0-0-0-0-0-0- 
Intro 2 and Verse: (First Time) 
E---------------------------------------------------------------- 
B---------------------------------------------------------------- 
G-2~~~~~~-------------------2-2-2-2----------------------- 
D-2~~~~~~3-3-3---3--3-3-3-2-2-2-2-0-0-0--0--0-0-0-0- 
A-0~~~~~~3-3-3---3--3-3-3-0-0-0-0-0-0-0--0--0-0-0-0- 
E-----------3-3-3---3--3-3-3-----------0-0-0--0--0-0-0-0- 
11x: 
E----------------------------------------------------------------- 
B----------------------------------------------------------------- 
G-2-2-2-2---------------------2-2-2-2----------------------- 
D-2-2-2-2-3-3-3---3--3-3-3-2-2-2-2-0-0-0--0--0-0-0-0- 
A-0-0-0-0-3-3-3---3--3-3-3-0-0-0-0-0-0-0--0--0-0-0-0- 
E-----------3-3-3---3--3-3-3-----------0-0-0--0--0-0-0-0- 
Bridge: 1x 
E----------- 
B----------- 
G----------- 
D-----5--3- 
A-3-------- 
E----------- 
Chorus: 8x ("Here in the southtown…") 
E------------------------------------------------------------- 
B------------------------------------------------------------ 
G------7-7-7-7------7-7-7-7------4-4-4-4-----4-4-4-4- 
D-3-3-----------3-3-----------0-0-----------0-0---------- 
A-3-3-----------3-3-----------0-0-----------0-0---------- 
E-3-3-----------3-3-----------0-0-----------0-0---------- 
(Verse) 
(Bridge) 
(Chorus) 
Bridge 2: ("Don't wanna throw up my fist…") 
E-------------------------- 
B-------------------------- 
G-------------------------- 
D--(2---3-----2---3----2-) 
A---7---8-----7---8----7- 
E-0---------0---------0--- 
Guitar 2 
Bridge 2: (On this guitar Marcos doesn't play the D. Put I put it in parenthesis 
to show you the timing) 
E-------------------------------- 
B-----5-6--------5-6--------5- 
G------------------------------- 
D------------------------------- 
A------------------------------- 
E-(0)-------(0)--------(0)----- 
Guitar 3 
Bridge 2: (Marcos is doing a little lead fill over top of the bridge. He doesn't 
start playing until the 2x of the bridge.) 
E-12-10---10-8---12-------13-12------------12-10---10-8---12------13-12---12-10---10-8---12------13-12- 

B-----------------------12-------------12-10------------------------12-----------------------------------12---------- 

E-12-10---10-8---12------13-12---12-10---10-8---12------13-12- 
B-----------------------12-----------------------------------12---------- 
Bridge 3: 8x; x = rake, or mute (From the 4th time on, Marcos does the double 
rake) 
E------------------x-x-(x-x-) 
B------------------x-x-(x-x-) 
G------------------x-x-(x-x-) 
D-0-2-3-0-2-3---x-x-(x-x-) 
A-0-2-3-0-2-3---x-x-(x-x-) 
E-0-2-3-0-2-3---x-x-(x-x-) 
(Verse 1x) 
(Chorus) 
Outro: 
E---------------------------------------------------------- 
B---------------------------------------------------------- 
G--------------------------7~~~------------------------- 
D-3-3-3---3---3-3-3-3---------0-0-0---0---0-0-0-0- 
A-3-3-3---3---3-3-3-3---------0-0-0---0---0-0-0-0- 
E-3-3-3---3---3-3-3-3---------0-0-0---0---0-0-0-0-





Comments


Popular P.O.D. tabs & chords
Snuff The Punk 1 Bass Tabs
Tell Me Why 1 Chords
Alive 1 Tabs
Anything Right 1 Tabs
Asthma 1 Tabs
Ghetto Tabs
Reggae Jam Tabs
South Town Intro Tabs
Thinkig About Forever Tabs
Youth Of The Nation 9 Tabs


Song lyrics



↑ Back to top | Tablatures and chords are parodies/interpretations of the original songs. You may use it for private study, scholarship, research or language learning purposes only
© 2014 AZChords.com Contact us | Privacy policy | DMCA | Add/correct tabs | Request tabs | Top 50 tabs