» » »

P.O.D., South Town Bass tabs (ver.1)

Artists:  A B C D E F G H I J K L M N O P Q R S T U V W X Y Z # 

South Town Bass tabs (ver.1)

P.O.D. Tabs
Rating:
0/5 (0 votes)
Hard to play? Try these video lessons and learn fast.
                
Intro
w/ chorus effect and fingernails
G|------9----------------------9----------|
D|-7-10---10---10---------7-10---10---7---|
A|-----------8----8-----------------5---5-| x3
D|----------------------------------------|

G|------9-----------------12--------9---------------|
D|-7-10---10---10------10------7-10---10---7--------|
A|-----------8----8--8-------------------5---5------|
D|-----------------------------------------------7*-|
*= w/ clean tone and fingers

Verse
G|-----------------------------|
D|-----------------------------|
A|-----------------------------| x5
D|-333-3-3-3-777-000-0-0-0-777-|

Pre-chorus
G|---------------|
D|---------------|
A|-5-8-7---5-----|
D|-----------7-0-|

Chorus
G|------------------------------|
D|-----555----555----222----222-|
A|------------------------------| x2
D|-3-3----3-3----0-0----0-0-----|

G|----------------------------------|
D|-------5-------5-------2--------2-|
A|-----3-------3-------0--------0---| x2
D|-3-3-----3-3-----0-0------0-0-----|

Play verse then pre-chorus then chorus again

Bridge
G|-------------------------|
D|-12-14-15-12-14-15-12-14-|
A|-------------------------| x8
D|-------------------------|

Break
G|---------------|
D|---------------|
A|---------------| x7
D|-0-2-3-0-2-3-xx|

G|----------------|
D|----------------|
A|----------------|
D|-0-2-3-0-2-3-7--|

Play the verse riff twice 

Then play the chorus

Outro
G|------------------------|
D|-----------7b-----------|
A|------------------------|
D|-333-3-3-3----000-0-0-0-|
            

comments powered by Disqus
↑ Back to top | P.O.D. Bass for South Town. Lyrics for acoustic guitar and electric guitar. Tablatures and chords are parodies/interpretations of the original songs. You may use it for private study, scholarship, research or language learning purposes only