» » »

P.O.D., Set Your Eyes To Zion Tabs (ver.3)

Artists:  A B C D E F G H I J K L M N O P Q R S T U V W X Y Z # 

Set Your Eyes To Zion Tabs (ver.3)

P.O.D. Tabs
 Rating:
4/5 (4 votes)
Set Your Eyes To Zion lessons Tabs too difficult? Try these video lessons and learn fast
                SouthtownTabbed by: Chase 
Standard Tuning 
Intro: (parenthesis) = palm mute 
E--------------------------------------------------------------------------------------------------------- 
B----------3h5p3-echo-echo-echo--5b(6)---------------------------------------------------------- 
G-(0-2)-----------------------------------------------0h2p0-echo-echo----------3-4-echo-echo- 
D-----------------------------------------------(2-3)------------------------(3-5)--------------------- 
A-------------------------------------------------------------------------------------------------------- 
E--------------------------------------------------------------------------------------------------------- 

Verse: (parenthesis) = echo here 
E--5-(5-5-5-)--8-(8-8-8-)--1-(1-1-1-)--5-(5-5-5-) 
B--5-(5-5-5-)--6-(6-6-6-)--1-(1-1-1-)--3-(3-3-3-) 
G--7-(7-7-7-)--5-(5-5-5-)--2-(2-2-2-)--2-(2-2-2-) 
D--7-(7-7-7-)--7-(7-7-7-)--3-(3-3-3-)--0-(0-0-0-) 
A--------------------------------------------------- 
E---------------------------------------------------- On the last chord, 
it sounds a little like the high E string isn't being played at all. But it's 
hard to tell. 
Chorus: E--------0-------------------- B----------3------------2---- 
G-----2--------------2----2- D---2-------------2---------- 
A-0------------0------------- E----------------------------- 
(Verse) (Chorus) 
Solo: Marcos is also playing something else in the background, but it's too 
far in the background for me to figure what it is he's playing. E-5-5---5-5-5-5--3--1--0--1--3-3--3p1p0h1--5b---5-5-5-5--3--1--0--1--3-3--3p1p0------------ 
B------------------------------------------------------------------------------------------------3---6/5-5- 
G------------------------------------------------------------------------------------------------------------ 

E------------------------------------------------------------------------------------- 
B-5-6--3-5--1-3--0-1-------------------------------------------------------------- 
G------------------------2-4---0-2-2--0-2-0-2-0-2---3-2-0--3-2-0--------------- 
D-------------------------------------------------------------------------0-2------- 
A-------------------------------------------------------------------------------3-0- 

Play the verse for the "Tell me Mr. Deadman…" part (Chorus) 
The Outro is a little bit different than the verse but not much: 
E-8--8-8--5-------------1-1-(5-5-) B-6--6-6--6-5h6--3-5--1-1--3-3- 
G-5--5-5--5-------------2-2--2-2- D-7--7-7--7-------------3-3--0-0- 
A------------------------------------ 
E-------------------------------------
            
Submit corrections

comments powered by Disqus
↑ Back to top | P.O.D. Tabs for Set Your Eyes To Zion. Lyrics for acoustic guitar and electric guitar. Tablatures and chords are parodies/interpretations of the original songs. You may use it for private study, scholarship, research or language learning purposes only