» » »

P.O.D., Set Your Eyes To Zion Tabs (ver.2)

Artists:  A B C D E F G H I J K L M N O P Q R S T U V W X Y Z # 

Set Your Eyes To Zion Tabs (ver.2)

P.O.D. Tabs
 Rating:
4/5 (4 votes)
Set Your Eyes To Zion lessons Tabs too difficult? Try these video lessons and learn fast
1
                pod
set your eyes to zion
TUNING: drop d (D,A,D,G,B,E) 
 
 
     INTRO: 
 
    E|----------------------------------------------------| 
    B|----------------------------------------------------| 
    G|----------------------------------------------------| 
    D|-------12h14p(echo)14^---5h7p(echo)---8h10p(echo)---| 
    A|-----12-----------------5------------8--------------| 
    D|---12------------------5------------8---------------| 
 
     VERSE: (echo in between chords) 
     
    E|---5-----8-----5-----3---| 
    B|---5-----6-----5-----3---| 
    G|---7-----5-----5-----3---| 
    D|---7-----7-----7-----5---| 
    A|-------------------------| 
    D|-------------------------| 
 
     CHORUS: 
 
    E|---------------------| 
    B|---------------------| 
    G|---------------------| 
    D|-----7h8p7---2h5p3---| 
    A|----5-------0--------| 
    D|---5-------0---------| 
 
     OUTRO: 
 
    E|---5---5---3---| 
    B|---6---5---3---| 
    G|---5---5---3---| 
    D|---7---7---5---| 
    A|---5---7---5---| 
    D|---------------|
            
Submit corrections

comments powered by Disqus
↑ Back to top | P.O.D. Tabs for Set Your Eyes To Zion. Lyrics for acoustic guitar and electric guitar. 1 Tablatures and chords are parodies/interpretations of the original songs. You may use it for private study, scholarship, research or language learning purposes only