» » »

P.O.D., School Of Hard Knocks Tabs (ver.2)

Artists:  A B C D E F G H I J K L M N O P Q R S T U V W X Y Z # 

School Of Hard Knocks Tabs (ver.2)

P.O.D. Tabs
 Rating:
4/5 (4 votes)
School Of Hard Knocks lessons Tabs too difficult? Try these video lessons and learn fast
1
                INTRO (Clean)

D----0-0-0-0--0-0-0-0--0-0--3-3-3-3--3-3-3-3--3-3--5-5-5-5--5-5-5-5--5-5--5-5-5--5-5-5----b7(PLAY THIS ONE DISTORTED) 
A----0-0-0-0--0-0-0-0--0-0--3-3-3-3--3-3-3-3--3-3--5-5-5-5--5-5-5-5--5-5--5-5-5--5-5-5------ 
D----0-0-0-0--0-0-0-0--0-0--3-3-3-3--3-3-3-3--3-3--5-5-5-5--5-5-5-5--5-5--5-5-5--5-5-5------ 
                 
CHORUS
       
D----0-0-0-0--0-0-0-0--0-0--3-3-3-3--3-3-3-3--3-3--5-5-5-5--5-5-5-5--5-5--5-5-5--5-5-5
A----0-0-0-0--0-0-0-0--0-0--3-3-3-3--3-3-3-3--3-3--5-5-5-5--5-5-5-5--5-5--5-5-5--5-5-5 
D----0-0-0-0--0-0-0-0--0-0--3-3-3-3--3-3-3-3--3-3--5-5-5-5--5-5-5-5--5-5--5-5-5--5-5-5 

VERSE
(listen for it to come in the song)
E----------------------||
B-1/3/5/6/5/3b---------||


PRECHORUS

E--------------||
B--------------||
G--------------||
D--0----0------||
A--0----0------||
D--0----0------||

CHORUS 2
D----0-0-0-0--0-0-0-0--0-0--3-3-3-3--3-3-3-3--3-3--5-5-5-5--5-5-5-5--5-5--5-5-5--5-5-5
A----0-0-0-0--0-0-0-0--0-0--3-3-3-3--3-3-3-3--3-3--5-5-5-5--5-5-5-5--5-5--5-5-5--5-5-5 
D----0-0-0-0--0-0-0-0--0-0--3-3-3-3--3-3-3-3--3-3--5-5-5-5--5-5-5-5--5-5--5-5-5--5-5-5

VERSE 2
E----------------------||
B-1/3/5/6/5/3b---------||

PRECHORUS

E-------------||
B-------------||
G-------------||
D--0----0-----||
A--0----0-----||
D--0----0-----||              
              

BRIDGE (Play twice)

G--7-7--5-5--7-7--5-5--9-9---|  |--7-7-7--5-5-5--3-3-3---||
D--7-7--5-5--7-7--5-5--9-9---|X3|--7-7-7--5-5-5--3-3-3---||X2
A--5-5--3-3--5-5--3-3--7-7---|  |--5-5-5--3-3-3--1-1-1---||
D----------------------------|  |------------------------||


BREAKDOWN (Play twice)

A--0------0----0-3/5-0-------||  
D--0------0------------3-5---||

INTERLUDE (Clean)

D----0-0-0-0--0-0-0-0--0-0--3-3-3-3--3-3-3-3--3-3--5-5-5-5--5-5-5-5--5-5--5-5-5--5-5-5----b7(PLAY THIS ONE DISTORTED) 
A----0-0-0-0--0-0-0-0--0-0--3-3-3-3--3-3-3-3--3-3--5-5-5-5--5-5-5-5--5-5--5-5-5--5-5-5------ 
D----0-0-0-0--0-0-0-0--0-0--3-3-3-3--3-3-3-3--3-3--5-5-5-5--5-5-5-5--5-5--5-5-5--5-5-5------ 

CHORUS 3

D----0-0-0-0--0-0-0-0--0-0--3-3-3-3--3-3-3-3--3-3--5-5-5-5--5-5-5-5--5-5--5-5-5--5-5-5
A----0-0-0-0--0-0-0-0--0-0--3-3-3-3--3-3-3-3--3-3--5-5-5-5--5-5-5-5--5-5--5-5-5--5-5-5 
D----0-0-0-0--0-0-0-0--0-0--3-3-3-3--3-3-3-3--3-3--5-5-5-5--5-5-5-5--5-5--5-5-5--5-5-5

BRIDGE (Play twice)

G--7-7--5-5--7-7--5-5--9-9---|  |--7-7-7--5-5-5--3-3-3---||
D--7-7--5-5--7-7--5-5--9-9---|X3|--7-7-7--5-5-5--3-3-3---||X2
A--5-5--3-3--5-5--3-3--7-7---|  |--5-5-5--3-3-3--1-1-1---||
D----------------------------|  |------------------------||


END ON

D---0---0---0--|          |--0--||
A---0---0---0--|(Shhhhhh) |--0--||let last one ring
D---0---0---0--|          |--0--||
            
Submit corrections

comments powered by Disqus
↑ Back to top | P.O.D. Tabs for School Of Hard Knocks. Lyrics for acoustic guitar and electric guitar. 1 Tablatures and chords are parodies/interpretations of the original songs. You may use it for private study, scholarship, research or language learning purposes only