>
 >
School Of Hard Knocks 2

School Of Hard Knocks 2 Guitar Tabs

P.O.D. - School Of Hard Knocks 2 chords, tabs, tablatures, lyrics

Guitar lessons | Add/correct | Request | Top 50 tabs Artists:  A B C D E F G H I J K L M N O P Q R S T U V W X Y Z 0-9

School Of Hard Knocks 2 Guitar Tabs – P.O.D.

CD, Sheet music, Poster

Do you like School Of Hard Knocks 2? Share with your friends now
Bass TabsBass Tabs v2Drum TabsTabsTabs v2Tabs v3Tabs v4Tabs v5
Tuning: 'Drop D' (D A D G B E) (I know it's not the tuning M.C. uses, but it's the easiest way to play this song)

Effects You'll Need (symbol indicated above tab represents when to use it):
*-Light distortion or overdrive, !-Heavy Distortion, =-Chorus, #-Delay

Symbols To Recognize: ()=Natural Harmonic (number inside () indicates fret number);
/=Bend Up; \=Bend Back Down; `=10th Fret; +=12th fret

Intro:
*=                                                              !
D|0000--0000--0000-3333--3333--3333-5555--5555--55--5555--5555----|
A|0000--0000--0000-3333--3333--3333-5555--5555--55--5555--5555----|
D|0000--0000--0220-3333--3333--3553-5555--5555--55--5555--5555----|
G|-------------22---------------55--------------------------------|
B|--------------------------------------------------------------8/|
E|----------------------------------------------------------------|

Chorus:
!
D|0000--0000--0000-3333--3333--3333-5555--5555--55--5555--5555----|
A|0000--0000--0000-3333--3333--3333-5555--5555--55--5555--5555----|
D|0000--0000--0220-3333--3333--3553-5555--5555--55--5555--5555----|
G|-------------22---------------55--------------------------------|(X 2)
B|----------------------------------------------------------------|
E|----------------------------------------------------------------|

Verse: (This isn't exact, but it works for me when I cover this song live)
=#
D|0---------------------------8------------5----------------------|
A|--0---------------------------8------------5--------------------|
D|---------`---------------`----------`----------5----------------|
G|----7------7-9-9/\-7-9-7--------`-9----------7------------------|(x 4)
B|-------------------------------------------------5--------------|
E|----------------------------------------------------------------|

Pre-Chorus:
*=
D|0000--(5)--0000--(7)--|
A|0000--(5)--0000--(7)--|
D|0000--(5)--0000--(7)--|
G|----------------------|
B|----------------------|
E|----------------------|

Chorus

Verse

Pre-Chorus

Lead/Solo:
!
D|---------------------------------------------------------------------------------|
A|888-777-888-777-````-888-777-888-777-````-888-777-888-777-````-888-777-5555555555|
D|---------------------------------------------------------------------------------|
G|```-999-```-999-++++-```-999-```-999-++++-```-999-```-999-++++-```-999-7777777777|(X 2)
B|---------------------------------------------------------------------------------|
E|---------------------------------------------------------------------------------|

Bridge:
!#
D|0-------------------------------7-0-5-0-7-5-|
A|0-----------------------------5-------------|
D|0-------------------------------------------|
G|--------------------------------------------|(X 2)
B|--------------------------------------------|
E|--------------------------------------------|

Intro

Chorus

Lead/Solo

Ending:
!
D|0--0--0----------0|
A|0--0--0--(shhh)--0|
D|0--0--0----------0|
G|------------------|
B|------------------|
E|------------------|





Comments


Popular P.O.D. tabs & chords
Get Up, Stand Up Bass Tabs
Boom Chords
Alive Tabs
Can You Feel It? Tabs
Greetings Tabs
Lights Out Tabs
Sleeping Awake 1 Tabs
Sleeping Awake 2 Tabs
Tell Me Why Tabs
Truly Amazing Intro Tabs


Song lyrics



↑ Back to top | Tablatures and chords are parodies/interpretations of the original songs. You may use it for private study, scholarship, research or language learning purposes only
© 2014 AZChords.com Contact us | Privacy policy | DMCA | Add/correct tabs | Request tabs | Top 50 tabs