» » »

P.O.D., Goodbye For Now Tabs (ver.2)

Artists:  A B C D E F G H I J K L M N O P Q R S T U V W X Y Z # 

Goodbye For Now Tabs (ver.2)

P.O.D. Tabs
 Rating:
4/5 (4 votes)
Goodbye For Now lessons Tabs too difficult? Try these video lessons and learn fast
                Tuning: Drop D (DAdGBE)

| /   slide up
| h   hammer-on
| p   pull-off
| .   palm-mute
| ~   let ring
| ()  optional notes

All guitars tuned DAdGBE
 {Gtr 1 - clean electric
 {Gtr 2 - lightly distorted electric
 {Gtr 3 - clean electric on Capo 5

I love the feel to this song. Enjoy. :)

[Intro/Verse Riff] (Played throughout)
  {Gtr 1
E|-----------------------------------------------------------------------|
B|-----------------------------------------------------------------------|
G|-----------------------------------------------------------------------|
d|------7-----7-----------10-----10---------7-----7---------7-----7------|
A|----5-----5-----5-5/8--------8------8---5-----5-----5---5-----5-----5--|
D|--0-----0-----0-------0----0------0---8-----8-----8---5-----5-----5----|

[Mini Riff] Played at regular intervals in the verse and at other times in the 
song. It could be played either as a second layer with Gtr 1 or just Gtr 3 joining in.

   {Gtr 1                    {Gtr 3 - Capo 5
E|-------------------|    E|---------------|
B|-------------------|    B|---------------|
G|--14h15-14p12-14~--| or G|--9h10-9p7-9~--|
d|-------------------|    d|---------------|
A|-------------------|    A|---------------|
D|-------------------|    D|---------------|

[Pre-Chorus]
       ~Part 1~
   {Gtr 2
E|-----------------------------------|
B|-----------------------------------|
G|------------------5-----5-----5h7--|
d|-----------------------------------|
A|--3h5-5-5-5-5-5-5---5-5---5-5------|
D|-----------------------------------|
    ...............   ...   ...

       ~Part 2~
   {Gtr 1      /-10s and 12s-\              /-12s and 14s-\-------|
E|----------------------------------------------------------------|
B|----------------------------------------------------------------|
G|--77777777-/-1212121212121212--77777777-/-1414141414141414------|
d|--77777777-/-1212121212121212--77777777-/-1414141414141414------|
A|--55555555-/-1010101010101010--55555555-/-1212121212121212------|
D|----------------------------------------------------------------|
 | {Gtr 2                /- - -Tens- - -\-------------------------|
E|----------------------------------------------------------------|
B|----------------------------------------------------------------|
G|----------------------------------------------------------------|
d|--00000000--55555555-/-1010101010101010--55555555---------------|
A|--00000000--33333333-/-8-8-8-8-8-8-8-8---55555555---------------|
D|--00000000--33333333-/-8-8-8-8-8-8-8-8---55555555---------------|
    ................................................

[Chorus]
   {Gtr 2
E|--------------------------------------------------|
B|--------------------------------------------------|
G|--------------------------------------------------|
d|--00000000--55555555--1010101010101010--55555555--|
A|--00000000--33333333--8-8-8-8-8-8-8-8---55555555--|
D|--00000000--33333333--8-8-8-8-8-8-8-8---55555555--|
 | {Gtr 3 - Capo 5
E|--000000000000--000000000000--000000000000--000000000000--|
B|--111111111111--333333333333--111111111111--333333333333--|
G|--222222222222--000000000000--222222222222--222222222222--|
d|--222222222222--222222222222--333333333333--000000000000--|
A|--000000000000--333333333333-(000000000000)(000000000000)-|
D|----------------------------------------------------------|

[Bridge]
   {Gtr 2                         /- - -Tens- - -\------|
E|------------------------------------------------------|
B|------------------------------------------------------|
G|------------------------------------------------------|
d|--00000000--33333333--00000000--1010101010101010------|
A|--00000000--11111111--00000000--1010101010101010------|
D|--00000000--11111111--00000000--1010101010101010------|

   {Gtr 2
E|------------------------------------------|
B|------------------------------------------|
G|------------------------------------------|
d|--00000000--33333333--00000000--33333333--|
A|--00000000--11111111--00000000--11111111--|
D|--00000000--11111111--00000000--11111111--|

[Outro] Play the intro riff once, but replace the ending of it with this:
   {Gtr 1
E|------------------------------|
B|------------------------------|
G|------------------------------|
d|------7-----7-7-7-7h8-8p5-7~--|
A|----5-----5---------------x---|
D|--5-----5-----------------0~--|

God bless. :)
            
Submit corrections

comments powered by Disqus
↑ Back to top | P.O.D. Tabs for Goodbye For Now. Lyrics for acoustic guitar and electric guitar. Tablatures and chords are parodies/interpretations of the original songs. You may use it for private study, scholarship, research or language learning purposes only