» » »

P.O.D., Goodbye For Now Tabs (ver.1)

Artists:  A B C D E F G H I J K L M N O P Q R S T U V W X Y Z # 

Goodbye For Now Tabs (ver.1)

P.O.D. Tabs
 Rating:
4/5 (4 votes)
Goodbye For Now lessons Tabs too difficult? Try these video lessons and learn fast
1
                Hey guys this is my first tab but im pretty sure its right

Dropped D tuning

Intro/Verse

Guitar 1 
E|------------------------------------|
B|------------------------------------|
G|------------------------------------|x5(one for the intro and 4 times for
D|--7--7----10--10-----7--7-----7--7--|the verse)                           
A|-5--5--5/8---8---8/-5--5--5/-5--5--5|
D|0--0--0-0---0---0--8--8--8--5--5--5-|

Guitar 2(It comes in on the second to last note of guitar 1)
E|------------------------------------|
B|------------------------------------|
G|-14h15-14p12-14---------------------|
D|------------------------------------|
A|------------------------------------|
D|------------------------------------|

Pre Chorus(continue verse)
E|------------------------------------|
B|------------------------------------|
G|-5--x-5-x-55------------------------|
D|-3--x-3-x-33------------------------|
A|------------------------------------|
D|------------------------------------|

Chorus

Guitar 1
E|---------------------------------------|
B|---------------------------------------|
G|---------------------------------------|
D|-0------5--------10---------5----------|
A|-0------3---------8---------5----------|
D|-0------3---------8---------5----------|

Guitar 2
E|------------------------------------|
B|------------------------------------|
G|-14h15-14p12-14---------------------|
D|------------------------------------|
A|------------------------------------|
D|------------------------------------|

Bridge
E|------------------------------------|
B|------------------------------------|
G|------------------------------------|
D|-0--3--0--10--0--3--0--3------------|
A|-0--1--0--10--0--1--0--1------------|
D|-0--1--0--10--0--1--0--1------------|

Later you should hear something like this
Guitar 1 
E|-12h13-12-12------------------------|
B|------------------------------------|
G|------------------------------------|
D|------------------------------------|                           
A|------------------------------------|
D|------------------------------------|

Outro
Guitar 1 
E|--------------------------------------------|
B|--------------------------------------------|
G|--------------------------------------------|
D|--7--7----10--10-----7--7-----7--7-7h8-7p5-7|                           
A|-5--5--5/8---8---8/-5--5--5/-5--5-----------|
D|0--0--0-0---0---0--8--8--8--5--5------------| 
            
Submit corrections

comments powered by Disqus
↑ Back to top | P.O.D. Tabs for Goodbye For Now. Lyrics for acoustic guitar and electric guitar. 1 Tablatures and chords are parodies/interpretations of the original songs. You may use it for private study, scholarship, research or language learning purposes only