» » »

P.O.D., Boom Tabs (ver.2)

Artists:  A B C D E F G H I J K L M N O P Q R S T U V W X Y Z # 

Boom Tabs (ver.2)

P.O.D. Tabs
Rating:
0/5 (0 votes)
Boom lessons Tabs too difficult? Try these video lessons and learn fast
                Boom-P.O.D.
Satellite

Tuning:
D G C F A D

( ) = harmonics

Intro: Riff A

d-----------------------------------------------------------------
a-----------------------------------------------------------------
f-----------------------------------------------------------------
c-----------------------------------------------------------------
g-----------------------------------------------------------------
d-2-2-2-2-2-0-0-0-0-2-2-2-2-0-0-0-0-5-5-5-5-5-5-5-5-7-7-7-7-0-0-0-

Verse 1: Fig 1.pm

x3
d-----------------------------------------------------------------
a-----------------------------------------------------------------
f-----------------------------------------------------------------
c-----------------------------------------------------------------
g-4-4-4-4-4-2-2-2-2-4-4-4-4-2-2-2-2-7-7-7-7-7-7-7-7-9-9-9-9-------
d-2-2-2-2-2-0-0-0-0-2-2-2-2-0-0-0-0-5-5-5-5-5-5-5-5-7-7-7-7-0-0-0-

then               
d-----------------------------------------------------------------
a-----------------------------------------------------------------
f-----------------------------------------------------------------
c-----------------------------------------------------------------
g-4-4-4-4-4-2-2-2-2-4-4-4-4-2-2-2-2-7-7-7-7-7-7-7-7-9-9-9-9-------
d-2-2-2-2-2-0-0-0-0-2-2-2-2-0-0-0-0-5-5-5-5-5-5-5-5-7-7-7-7-0-0-0-        
                                 release pm

Pre Chorus: Riff A x2

then gtr stops....
d-----------------------------------------------------------------
a-----------------------------------------------------------------
f-----------------------------------------------------------------
c-----------------------------------------------------------------
g-----------------------------------------------------------------
d---------------------------------------------------------x-x\\\--

Chorus: Fig 3. x2

d-----------------------------------------------------------------
a-----------------------------------------------------------------
f-------------9----------------9----------------------------------
c-------------x----------------x----------------------------------
g-4---4-------7----4---4-------7----9-9-9-9-9------9-9-9-9-9------
d-2---2------------2---2------------7-7-7-7-7-0----7-7-7-7-7-0----

Verse 2: Fig 2 x4
Pre Chorus
Chorus

Interlude:

let ring
d-----------------------------------------------------------------
a-----------------------------------------------------------------
f-----------------------------------------------------------------
c-----------------------------------------------------------------
g-4---------------------------------------------------------------
d-2---------------------------------------------------------------

Bridge: Riff B x2

d-----------------------------------------------------------------
a-----------------------------------------------------------------
f-----------------------------------------------------------------
c---------4----------------------4--------------------------------
g-----4----------------------4----------------------------(5)-----
d-2----------------------0--------------------------(5)-----------

d-----------------------------------------------------------------
a-----------------------------------------------------------------
f-----------------------------------------------------------------
c---------4----------------------4----------------------4/6\4p0---
g-----4----------------------4------------------------------------
d-2----------------------0----------------------------------------

...Is that all you got..

x4
d-----------------------------------------------------------------
a-----------------------------------------------------------------
f-----------------------------------------------------------------
c-------------------------------------------------------4/6\4p0---
g-4--------------------------4-2----------------------------------
d-2--------------------------2-0----------------------------------

Outro Chorus:

x2
d-----------------------------------------------------------------
a-----------------------------------------------------------------
f-----------------------------------------------------------------
c-----------------------------------------------------------------
g-4--4--------4--4--------9-9-9-9-9-----------9-9-9-9-9-----------
d-2--2--------2--2--------7-7-7-7-7-0---------7-7-7-7-7-0---------

x2
d-----------------------------------------------------------------
a-----------------------------------------------------------------
f-------------9----------------9----------------------------------
c-------------x----------------x----------------------------------
g-4---4-------7----4---4-------7----9-9-9-9-9------9-9-9-9-9------
d-2---2------------2---2------------7-7-7-7-7-0----7-7-7-7-7-0----

that’s all

suprisingly this song isn’t in drop c like most of the
songs off of satellite, but in the same tuning as most

trevor jones
            
Submit corrections

comments powered by Disqus
↑ Back to top | P.O.D. Tabs for Boom. Lyrics for acoustic guitar and electric guitar. Tablatures and chords are parodies/interpretations of the original songs. You may use it for private study, scholarship, research or language learning purposes only