» » »

P.O.D., Boom Tabs (ver.1)

Artists:  A B C D E F G H I J K L M N O P Q R S T U V W X Y Z # 

Boom Tabs (ver.1)

P.O.D. Tabs
Rating:
0/5 (0 votes)
Boom lessons Tabs too difficult? Try these video lessons and learn fast
                Boom - P.O.D

Mostly easy, to get the timing listen to the song.

Drop D - DADGBe

KEY : / - Slide up
      b - Bend up/down
      . - Palm mute


INTRO

e|-----------------------------------------------------------------|
B|-----------------------------------------------------------------|
G|-----------------------------------------------------------------|
D|-2-2-2-2-2-0-0-0-2-2-2-2-2-0-0-0-5-5-5-5-5-5-5-5-7-7-7-7-7-0-0-0-|  X3
A|-2-2-2-2-2-0-0-0-2-2-2-2-2-0-0-0-5-5-5-5-5-5-5-5-7-7-7-7-7-0-0-0-|
D|-2-2-2-2-2-0-0-0-2-2-2-2-2-0-0-0-5-5-5-5-5-5-5-5-7-7-7-7-7-0-0-0-| 


VERSE 1

e|-----------------------------------------------------------------|
B|-----------------------------------------------------------------|
G|-----------------------------------------------------------------|
D|-----------------------------------------------------------------|  X3
A|-----------------------------------------------------------------|
D|-2-2-2-2-2-0-0-0-2-2-2-2-2-0-0-0-5-5-5-5-5-5-5-5-7-7-7-7-7-0-0-0-| 

e|-----------------------------------------------------------------|
B|-----------------------------------------------------------------|
G|-----------------------------------------------------------------|
D|---------------------------------5-5-5-5-5-5-5-5-7-7-7-7-7-0-0-0-|
A|---------------------------------5-5-5-5-5-5-5-5-7-7-7-7-7-0-0-0-|
D|-2-2-2-2-2-0-0-0-2-2-2-2-2-0-0-0-5-5-5-5-5-5-5-5-7-7-7-7-7-0-0-0-|


CHORUS

e|-----------------------------------------------------------------|
B|-----------------------------------------------------------------|
G|-----------------------------------------------------------------|
D|-2-2-2-2-2-0-0-0-2-2-2-2-2-0-0-0-5-5-5-5-5-5-5-5-7-7-7-7-7-0-0-0-|  X2
A|-2-2-2-2-2-0-0-0-2-2-2-2-2-0-0-0-5-5-5-5-5-5-5-5-7-7-7-7-7-0-0-0-|
D|-2-2-2-2-2-0-0-0-2-2-2-2-2-0-0-0-5-5-5-5-5-5-5-5-7-7-7-7-7-0-0-0-| 


e|-----------------------------------------------------------------|
B|-----------------------------------------------------------------|
G|-----------------------------------------------------------------|
D|-2-2-2/-------------2-2-2/------------7-7-7-7-7-5----7-7-7-7-7-5-|  X2
A|-2-2-2/-------------2-2-2/------------7-7-7-7-7-5----7-7-7-7-7-5-|
D|-2-2-2/-------------2-2-2/------------7-7-7-7-7-5----7-7-7-7-7-5-|


VERSE 2

e|-----------------------------------------------------------------|
B|-----------------------------------------------------------------|
G|-----------------------------------------------------------------|
D|-----------------------------------------------------------------|  X3
A|-----------------------------------------------------------------|
D|-2-2-2-2-2-0-0-0-2-2-2-2-2-0-0-0-5-5-5-5-5-5-5-5-7-7-7-7-7-0-0-0-| 

e|-----------------------------------------------------------------|
B|-----------------------------------------------------------------|
G|-----------------------------------------------------------------|
D|---------------------------------5-5-5-5-5-5-5-5-7-7-7-7-7-0-0-0-|
A|---------------------------------5-5-5-5-5-5-5-5-7-7-7-7-7-0-0-0-|
D|-2-2-2-2-2-0-0-0-2-2-2-2-2-0-0-0-5-5-5-5-5-5-5-5-7-7-7-7-7-0-0-0-|


CHORUS

e|-----------------------------------------------------------------|
B|-----------------------------------------------------------------|
G|-----------------------------------------------------------------|
D|-2-2-2-2-2-0-0-0-2-2-2-2-2-0-0-0-5-5-5-5-5-5-5-5-7-7-7-7-7-0-0-0-|  X2
A|-2-2-2-2-2-0-0-0-2-2-2-2-2-0-0-0-5-5-5-5-5-5-5-5-7-7-7-7-7-0-0-0-|
D|-2-2-2-2-2-0-0-0-2-2-2-2-2-0-0-0-5-5-5-5-5-5-5-5-7-7-7-7-7-0-0-0-| 


e|-----------------------------------------------------------------|
B|-----------------------------------------------------------------|
G|-----------------------------------------------------------------|
D|-2-2-2/-------------2-2-2/------------7-7-7-7-7-5----7-7-7-7-7-5-|  X4
A|-2-2-2/-------------2-2-2/------------7-7-7-7-7-5----7-7-7-7-7-5-|
D|-2-2-2/-------------2-2-2/------------7-7-7-7-7-5----7-7-7-7-7-5-|


BRIDGE

e|-----------------------------------------------------------------|
B|-----------------------------------------------------------------|
G|---------------5----------------------------------5--------------|
D|-----5------5-5------5-----5-5b---------5------5-5------5-----5--|
A|---5------5--------5-----5------------5------5--------5-----5----|
D|-0------0--------0-----0------------0------0--------0-----0------|


e|-----------------------------------------------------------------|
B|-----------------------------------------------------------------|
G|-----------------------------------------------------------------|
D|-----2~--0-----------2~--0-----------2~--0-----------2~--0-------|
A|-----2~--0-----------2~--0-----------2~--0-----------2~--0-------|
D|-9b--2~--0-------9b--2~--0-------9b--2~--0-------9b--2~--0----9b-|


OUTRO

e|-----------------------------------------------------------------|
B|-----------------------------------------------------------------|
G|-----------------------------------------------------------------|
D|-2-2---2-2----7-7-7-7-7-5-----7-7-7-7-7-5------------------------| X2
A|-2-2---2-2----7-7-7-7-7-5-----7-7-7-7-7-5------------------------|
D|-2-2---2-2----7-7-7-7-7-5-----7-7-7-7-7-5------------------------|
   . .   . .                            
 
e|-----------------------------------------------------------------|
B|-----------------------------------------------------------------|
G|-----------------------------------------------------------------|
D|-2-2-2/-------------2-2-2/------------7-7-7-7-7-5----7-7-7-7-7-5-|  X2
A|-2-2-2/-------------2-2-2/------------7-7-7-7-7-5----7-7-7-7-7-5-|
D|-2-2-2/-------------2-2-2/------------7-7-7-7-7-5----7-7-7-7-7-5-|
                                                                 .
            

comments powered by Disqus
↑ Back to top | P.O.D. Tabs for Boom. Lyrics for acoustic guitar and electric guitar. Tablatures and chords are parodies/interpretations of the original songs. You may use it for private study, scholarship, research or language learning purposes only