» » »

P.O.D., Alive Tabs (ver.2)

Artists:  A B C D E F G H I J K L M N O P Q R S T U V W X Y Z # 

Alive Tabs (ver.2)

P.O.D. Tabs
 Rating:
4/5 (4 votes)
Alive lessons Tabs too difficult? Try these video lessons and learn fast
1
                (Intro)
Intro/Verse

Tuning-Drop-d and tune down 1 step
---------------------------------------
---------------------------------------
---------------------------------------
-2-2-2--7-7-7-10-10-10--10-10-10-5-5-5-
-2-2-2--7-7-7-10-10-10--10-10-10-5-5-5-
-2-2-2--7-7-7-10-10-10--10-10-10-5-5-5-not exact times just the chord change
                                       listen to song for timing
-
OR
-

Tuning standard drop-d

E---------------------------------
B---------------------------------
G---------------------------------
D-0-0-0--5-5-5-8-8-8--8-8-8-3-3-3-
A-0-0-0--5-5-5-8-8-8--8-8-8-3-3-3-
D-0-0-0--5-5-5-8-8-8--8-8-8-3-3-3-not exact times just the chord change
                                  listen to song for timing


Chorus

Tuning-Drop-d and tune down 1 step
-10-10-10-10-10-10-10-10-10-10-10-10-10-0-0-0-2-2-2-2-2-2-2-2-2-2-2-2-2-2-2-2-
-10-10-10-10-10-10-10-10-10-10-10-10-10-0-0-0-2-2-2-2-2-2-2-2-2-2-2-2-2-2-2-2-
-10-10-10-10-10-10-10-10-10-10-10-10-10-0-0-0-2-2-2-2-2-2-2-2-2-2-2-2-2-2-2-2-

-----------------------------------------------------------
-----------------------------------------------------------
-----------------------------------------------------------
5-5-5-5-5-5-5-5-5-5-5-5-0---5-5-5-5-5-5-5-5--5-4-2-4-2p0---
5-5-5-5-5-5-5-5-5-5-5-5-0---5-5-5-5-5-5-5-5--------------0-
5-5-5-5-5-5-5-5-5-5-5-5-0---5-5-5-5-5-5-5-5----------------
            
Submit corrections

comments powered by Disqus
↑ Back to top | P.O.D. Tabs for Alive. Lyrics for acoustic guitar and electric guitar. 1 Tablatures and chords are parodies/interpretations of the original songs. You may use it for private study, scholarship, research or language learning purposes only