» » »

Alive Bass tabs (ver.2)

Artists:  A B C D E F G H I J K L M N O P Q R S T U V W X Y Z # 

Alive Bass tabs (ver.2)

P.O.D.
Rating:
0/5 (0 votes)

Hard to play? Try these video lessons and learn fast.
                


5string*-*

Verse
G:|--------------------------------------------|
D:|--------------------------------------------|
A:|------------------0-1--1-1-1-0-1--1-1-1-1-0-|
E:|----------3-3-3-3--------------------------3|
B:|3-3-3-1-3-----------------------------------|

play this for last riff of verse into chorus
G:|-------------------------------------------------|
D:|-------------------------------------------------|
A:|------------------0-1--1-1-1-0-1--3-3-3-3-3-3-3-3|
E:|----------3-3-3-3--------------------------------|
B:|3-3-3-1-3----------------------------------------|

Chorus
G:|-----------------------------------------------|
D:|-----------------------------------------------|
A:|------------5--5--5-5--------------------------|
E:|6--6--6-8-------------------------8------------|
B:|-----------------------6-6-6--6-6----6-6-6--6-6|

G:|10-9-7-9--7----|     
D:|-----------10-7|     
A:|---------------|    
E:|---------------|
B:|---------------|

Bridge
G:|--------------------------------------------|
D:|--------------------------------------------|
A:|--------------------------------------------|
E:|--------------------------------------8/12\1|
B:|3-4-3---3-3-4---1--3-3-4-3---3-3-4-3--------|

G:|----------------------------------------|
D:|----------------------------------------|
A:|----------------------------------------|
E:|----------------3----------------------3|
B:|4-3--3----4-3------4-3---4-3--4-3---3---|2x

Chorus..

End
G:|-----------------------|
D:|-----------------------|
A:|-----------------------|
E:|-----------------------|
B:|3-3-3-1-3---3-3-3-3-1-3|


4String*-* If playing the C an octave up bugs you then you can 
           tune down another step to C and figure it out.

Verse
G:|----------------------------------------------|
D:|----------------------------------------------|
A:|5-5-5-3-5-----------0-1--1-1-1-0-1--1-1-1-1-0-|
D:|-----------5-5-5-5---------------------------5|

Last line of Verse
G:|-------------------------------------------------|
D:|-------------------------------------------------|
A:|5-5-5-3-5---------0-1--1-1-1-0-1--3-3-3-3-3-3-3-3|
D:|----------5-5-5-5--------------------------------|

Chorus
G:|--------------------------------------------------|
D:|--------------------------------------------------|
A:|1--1--1-3-----5--5--5-5-------------3-------------|
D:|-------------------------3-3-3--3-3---3-3-3-3--3-3|

G:|10-9-7-9--7----|
D:|-----------10-7|     
A:|---------------|    
D:|---------------|

Bridge
G:|---------------------------------------------|
D:|---------------------------------------------|
A:|----------------3----------------------------|
D:|0-1-0---0-0-1------0-0-1-0---0-0-1-0--10/12\1|

G:|----------------------------------------|
D:|----------------------------------------|
A:|----------------------------------------|
D:|1-0--0----1-0----5-1-0---1-0--1-0---1--5| 2x

Chorus..

End
G:|------------------------|
D:|------------------------|
A:|5-5-5-3-5----5-5-5-5-3-5|
D:|------------------------|
            
Hard to play? Try these video lessons and learn fast. | Correct




comments powered by Disqus
↑ Back to top | Tablatures and chords are parodies/interpretations of the original songs. You may use it for private study, scholarship, research or language learning purposes only