» » »

Paraluman, Emily Tabs (ver.2)

Artists:  A B C D E F G H I J K L M N O P Q R S T U V W X Y Z # 

Emily Tabs (ver.2)

Paraluman Tabs
Rating:
5/5 (4 votes)
Hard to play? Try these video lessons and learn fast.
                EMILY by Paraluman

INTRO: C9-Dsus

e|-------10---------------8-8-7-7h8p7--|
B|-7h8p7----7-7h8p7-7h8p7--------------|
G|-------------------------------------| repeat ? times.. hehe
D|-------------------------------------|
A|-------------------------------------|
E|-------------------------------------|

VERSE: C9-Dsus

CHORUS: G-Dsus-C9-Dsus

ADLIB:

e|-------10-------10--10-8-7-7h8p7-----------|
B|-7h8p7----7h8p7------------------8-8h10-8--|
G|-------------------------------------------|
D|-------------------------------------------|
A|-------------------------------------------|
E|-------------------------------------------|

e|--------------------------------------------------------------------|
B|-8-8-8-8-8-8-10-10-10-10-10-10-12-12-12-12-12-12-13-13-13-13-13-13--|
G|--------------------------------------------------------------------|
D|--------------------------------------------------------------------|
A|--------------------------------------------------------------------|
E|--------------------------------------------------------------------|

e|-------12-12-15-15-17-17-15-15-12-12--|
B|-15-15--------------------------------|
G|--------------------------------------| 3x
D|--------------------------------------|
A|--------------------------------------|
E|--------------------------------------|

e|----12-15-17-17/18-|
B|-15----------------|
G|-------------------|
D|-------------------|
A|-------------------|
E|-------------------|


..pasensya na kulang-kulang pa 'to e..

NITRAM
06-02-08
07:26 PM
            

comments powered by Disqus
↑ Back to top | Paraluman Tabs for Emily. Lyrics for acoustic guitar and electric guitar. Tablatures and chords are parodies/interpretations of the original songs. You may use it for private study, scholarship, research or language learning purposes only