>
 >
Emily

Emily Guitar Tabs

Paraluman - Emily chords, tabs, tablatures, lyrics

Guitar lessons | Add/correct | Request | Top 50 tabs Artists:  A B C D E F G H I J K L M N O P Q R S T U V W X Y Z 0-9

Emily Guitar Tabs – Paraluman

CD, Sheet music, Poster

Do you like Emily? Share with your friends now
ChordsChords v2TabsTabs v2UkuleleUkulele v2
Paraluman - Emily

INTRO: 

e|---------10---------------------8-7-7-7h8-7----|
B|-7h8-8-8----8-8-7h8-8-8-7h8-8-8----------------|
G|-------------------------------------| repeat--| 2x
D|-----------------------------------------------|
A|-----------------------------------------------|
E|-----------------------------------------------|

e|---------10-------------8-7-7-7h8-7-|
B|-7h8-8-8----8-8-7h8-8-8-------------|
G|------------------------------------|
D|------------------------------------|
A|------------------------------------|
E|------------------------------------|

e|---------10----------------8----|
B|-7h8-8-8----8-8-7h8--8-8-8------|
G|--------------------------------|
D|--------------------------------|
A|--------------------------------|
E|--------------------------------|

VERSE:

G                      C
The sun has set, And the grey sky fade in blue

e|-7h8-8-10-7h8-8-10--10-10-10/8-8/7-7h8-7----------|
B|-----------------------------------------8h10-8---|
G|--------------------------------------------------|
D|--------------------------------------------------|
A|--------------------------------------------------|
E|--------------------------------------------------|

G
Been wanting to say goodbye
          C
But it leads me back to you

G-Am-Bm-C

e|------------------------------------------------------------10---|
B|-7-7-7h8--8--8-8--7-7-7h8-8-8-8s10-7-7-7h8-8-8-8s12-7-7-7-8------|
G|-----------------------------------------------------------------|
D|-----------------------------------------------------------------|
A|-----------------------------------------------------------------|
E|-----------------------------------------------------------------|

G                     C
Then the rain starts to fall down
    G                C
As I wath the stars crash into the night
 G                       C
I wish I could turn, turn back the hands of time

e|-7h8-8-10-7h8-8-10--10-10-10/8-8/7-7h8-7----------|
B|-----------------------------------------8h10-8---|
G|--------------------------------------------------|
D|--------------------------------------------------|
A|--------------------------------------------------|
E|--------------------------------------------------|

   Em                        D
As I piked up all te pieces that you've left behind
 C                             D
My heart bleeds your smile and my soul starts to die
                   ▲
"while playin this  part, Do this  in GuiTar 2 "
                                  ▼
e|---------------------------------------------------------------------|
B|-8-8-8-8-8-8-10-10-10-10-10-10-12-12-12-12-12-12-13-13-13-13-13-13---|
G|---------------------------------------------------------------------|
D|---------------------------------------------------------------------|
A|---------------------------------------------------------------------|
E|---------------------------------------------------------------------|


CHORUS: G-Am-Bm-C

e|------------------------------------------------|
B|------------------------------------------------|
G|------------------------------------------------|
D|---5-5-5-5--7-7-7-7--9-9-9-9--10-10-10-10-------|
A|---5-5-5-5--7-7-7-7--9-9-9-9--10-10-10-10-------|
E|---3-3-3-3--7-5-5-5--7-7-7-7--8--8--8--8--------|

          G         Am
Now I'm screaming and shouting
        Bm
And I can't hear a thing

G           Am                Bm
My eyes burn and blister, I can't feel the pain
G            Am         Bm-C
And I don't know why I'm here
G           Am    Bm-C
Don't know why I'm here 2x


ADLIB:

e|-------10-------10--10-10-10-10--8-7-7h8p7---------------|
B|-7h8-7----7h8p7----------------------------8-8-8h10-8----|
G|---------------------------------------------------------|
D|---------------------------------------------------------|
A|---------------------------------------------------------|
E|---------------------------------------------------------|

e|--------------------------------------------------------------------|
B|-8-8-8-8-8-8-10-10-10-10-10-10-12-12-12-12-12-12-13-13-13-13-13-13--|
G|--------------------------------------------------------------------|
D|--------------------------------------------------------------------|
A|--------------------------------------------------------------------|
E|--------------------------------------------------------------------|

e|-------------15-15-17-17-15-15-------|
B|-15-15-17-17-------------------17-17-|
G|-------------------------------------| 3x
D|-------------------------------------|
A|-------------------------------------|
E|-------------------------------------|

e|-------15/17-17/18-|
B|-15-15-------------|
G|-------------------|
D|-------------------|
A|-------------------|
E|-------------------|

      Em        D
But I simply can't
    C          D
No, I simply can't

No, I simply can't 2x

e|----------------|
B|----------------|
G|-9---7---5---7--|
D|-9---7---5---7--|
A|-7---5---3---5--|
E|----------------|

(repeat chorus 2x)

"For 2nd Chorus"

G            Am         Bm-C
And I don't know why I'm here
G           Am    Bm-C
Don't know why I'm here 2x

e|-------------15-15-17-17-15-15-------|
B|-15-15-17-17-------------------17-17-|
G|-------------------------------------| 3x
D|-------------------------------------|
A|-------------------------------------|
E|-------------------------------------|

e|-------15/17-17/18-|
B|-15-15-------------|
G|-------------------|
D|-------------------|
A|-------------------|
E|-------------------|

Now I'm screaming and shouting

And I can't hear a thing

Dont know why I'm here.

Sa live nakita ko G C G C yung intro
Yung chorus naman G D Em C
Sa stanza naman na
Been wanting to say goodbye but it.
meon singit na gento

e|-10-10-8-8-7-7-8-7-7h8-7----------|
B|-------------------------7-7-8s10-|
G|----------------------------------|
D|----------------------------------|
A|----------------------------------|
E|----------------------------------|

Keo nang bahala kung ano susundin niyo
inspite of all this lahat naman to tama ahehe ^_^

Hi sa mga kaibigan ko Hope you like this Enjoy





Comments


Popular Paraluman tabs & chords
Tabi 1 Bass Tabs
How Could I Chords
Slip Chords
Tabi 1 Chords
Teka Chords
Emily 1 Tabs
In Lab Tabs
Tabi 2 Tabs
A Christmas Gift Ukulele
For You Ukulele


Song lyrics



↑ Back to top | Tablatures and chords are parodies/interpretations of the original songs. You may use it for private study, scholarship, research or language learning purposes only
© 2014 AZChords.com Contact us | Privacy policy | DMCA | Add/correct tabs | Request tabs | Top 50 tabs