» » »

Blood Brothers Tabs (ver.5)

Artists:  A B C D E F G H I J K L M N O P Q R S T U V W X Y Z # 

Blood Brothers Tabs (ver.5)

Papa Roach
Rating:
5/5 (1 vote)

Hard to play? Try these video lessons and learn fast.
                Band- Papa Roach
Song- Blood Brothers
Album- Infest

Gtr I (D A D G B E) - 'Untitled'
Gtr II (D A D G B E) - 'Untitled'

   Intro
    Q=84
   4/4
    Gtr I
     PM---------------------------------------------
     S  S  S  S S  S  S  S  S  S  S  S  S  S  S  S
||-------------------------------------------------|
||o------------------------------------------------|
||--------10----9-------------10-------------------|
||--12-12----12---10----12-12----12-12-10-10-12-10-|
||o------------------12----------------------------|
||-------------------------------------------------|


 ---------------------------------------------|
   S  S  S  S S  S  S  S  S  S  S  S  S  S  S  S
|-------------------------------------------------||
|------------------------------------------------o||
|-------10----9-------------10--------------------||
|-12-12----12---10----12-12----12-10--------------||
|------------------12----------------12-12-13-12-o||
|-------------------------------------------------||


    Gtr I
     PM----------------------------------------------
     S  S  S  S  S  S  S  S  S  S  S  S  S  S  S  S
||--------------------------------------------------|
||o-------------------------------------------------|
||--------10-----9-------------10-------------------|
||--12-12----12----10----12-12----12-12-10-10-12-10-|
||o-------------------12----------------------------|
||--------------------------------------------------|
|
|   Gtr II
|    e     e     e     e     e     e     e     e
||--------------------------------------------------|
||o-15----15----15----15----15----15----15----15----|
||--------------------------------------------------|
||--12----12----12----12----12----12----12----12----|
||o-------------------------------------------------|
||--------------------------------------------------|


 ----------------------------------------------|
   S  S  S  S  S  S  S  S  S  S  S  S  S  S  S  S   3x
|---------------------------------------------------||
|--------------------------------------------------o||
|-------10-----9-------------10---------------------||
|-12-12----12----10----12-12----12-10---------------||
|-------------------12----------------12-12-13-12--o||
|---------------------------------------------------||
|
|  e     e     e     e     e     e     e     e      3x
|---------------------------------------------------||
|-15----15----15----15----15----15----15----15-----o||
|---------------------------------------------------||
|-12----12----12----12----12----12----12----12------||
|--------------------------------------------------o||
|---------------------------------------------------||


    D5  F  D5E C5 A5D5  F    A5C5
    S S  S S S  S S S S  S S S  S  S  S  S
||-----------------------------------------|
||o----------------------------------------|
||------10---9----------10-----------------|
||-------x---x-----------x-----10-10-10-10-|
||o-0-0--8-0-7-10-7-0-0--8-0-7-10-10-10-10-|
||--0-0----0---10-7-0-0----0-7-10-10-10-10-|


  D5  F  D5E C5 A5D5  F  D5  F5
  S S  S S S  S S S S  S S S S S S S
|--------------------------------------||
|-------------------------------------o||
|-----10---9----------10-----5-5-5-5---||
|------x---x-----------x-----3-3-3-3---||
|-0-0--8-0-7-10-7-0-0--8-0-0-3-3-3-3--o||
|-0-0----0---10-7-0-0----0-0-3-3-3-3---||


   Verse
    $
    PM|   PM       PM|   PM|            PM|   PM       PM|   PM|
    S S S S S  S S S S S S S S  S S S   S S S S S  S S S S S S S S  S S S   4x
||------------------------------------|-------------------------------------||
||o-----------------------------------|------------------------------------o||
||------------------------------------|-------------------------------------||
||------------------------------------|-------------------------------------||
||o-----8---7----------8-----7--------|-----8---7----------8-----7---------o||
||--0-0---0---10-7-0-0---0-0---10-7-7-|-0-0---0---10-7-0-0---0-0---10-7-7---||


 1st, 2nd Pre-Chorus
  D5
  S S E E. S S S S S Q    S S E E. S S S S S Q    S S E E. S S S S S Q
|-----------------------|-----------------------|-----------------------|
|-----------------------|-----------------------|-----------------------|
|----------2---2-2------|-2-2------2---2-2------|-2-2------2---2-2------|
|-0-0------0---0-0------|-0-0------0---0-0------|-0-0------0---0-0------|
|-0-0------0---0-0------|-0-0------0---0-0------|-0-0------0---0-0------|
|-0-0------0---0-0------|-0-0------0---0-0------|-0-0------0---0-0------|


                          Chorus
                To Coda
                           D5  F  D5E C5 A5D5  F  D5  A5C5
  S S E E. S S S S S Q     S S  S S S  S S S S  S S S S  E.
|-----------------------||----------------------------------|
|-----------------------||----------------------------------|
|-2-2------2---2-2------||-----10---9----------10-----------|
|-0-0------0---0-0------||------x---x-----------x-------10--|
|-0-0------0---0-0------||-0-0--8-0-7-10-7-0-0--8-0-0-7-10--|
|-0-0------0---0-0------||-0-0----0---10-7-0-0----0-0-7-10--|


  D5  F  D5E C5 A5D5  F  D5    F5   D5  F  D5E C5 A5D5  F  D5  A5C5
  S S  S S S  S S S S  S S S S E.   S S  S S S  S S S S  S S S S  E.
|---------------------------------|----------------------------------|
|---------------------------------|----------------------------------|
|-----10---9----------10-------5--|-----10---9----------10-----------|
|------x---x-----------x-------3--|------x---x-----------x-------10--|
|-0-0--8-0-7-10-7-0-0--8-0-0-0-3--|-0-0--8-0-7-10-7-0-0--8-0-0-7-10--|
|-0-0----0---10-7-0-0----0-0-0-3--|-0-0----0---10-7-0-0----0-0-7-10--|


  D5  F  D5E C5 A5D5  F  D5    F5   F5/Bb
  S S  S S S  S S S S  S S S S E.    W
|---------------------------------|-------|
|---------------------------------|-------|
|-----10---9----------10-------5--|-------|
|------x---x-----------x-------3--|-10----|
|-0-0--8-0-7-10-7-0-0--8-0-0-0-3--|--8----|
|-0-0----0---10-7-0-0----0-0-0-3--|--8----|


   PM---------------------------------------------
   S  S  S  S S  S  S  S  S  S  S  S  S  S  S  S
|------------------------------------------------|
|------------------------------------------------|
|-------10----9-------------10-------------------|
|-12-12----12---10----12-12----12-12-10-10-12-10-|
|------------------12----------------------------|
|------------------------------------------------|


                                  D.S. al Coda
 ---------------------------------------------|
   S  S  S  S S  S  S  S  S  S  S  S  S  S  S  S
|------------------------------------------------||
|------------------------------------------------||
|-------10----9-------------10-------------------||
|-12-12----12---10----12-12----12-10-------------||
|------------------12----------------12-12-13-12-||
|------------------------------------------------||


   2nd Chorus
    &
    D5  F  D5E C5 A5D5  F  D5  A5C5    D5  F  D5E C5 A5D5  F  D5    F5
    S S  S S S  S S S S  S S S S  E.   S S  S S S  S S S S  S S S S E.
||-----------------------------------|---------------------------------|
||o----------------------------------|---------------------------------|
||------10---9----------10-----------|-----10---9----------10-------5--|
||-------x---x-----------x-------10--|------x---x-----------x-------3--|
||o-0-0--8-0-7-10-7-0-0--8-0-0-7-10--|-0-0--8-0-7-10-7-0-0--8-0-0-0-3--|
||--0-0----0---10-7-0-0----0-0-7-10--|-0-0----0---10-7-0-0----0-0-0-3--|


  D5  F  D5E C5 A5D5  F  D5  A5C5    D5  F  D5E C5 A5D5F5  F5      F5
  S S  S S S  S S S S  S S S S  E.   S S  S S S  S S S E S S +S  S E
|----------------------------------|----------------------------------||
|----------------------------------|---------------------------------o||
|-----10---9----------10-----------|-----10---9--------5---5-(5)---5--||
|------x---x-----------x-------10--|------x---x--------3---3-(3)---3--||
|-0-0--8-0-7-10-7-0-0--8-0-0-7-10--|-0-0--8-0-7-10-7-0-3---3-(3)---3-o||
|-0-0----0---10-7-0-0----0-0-7-10--|-0-0----0---10-7-0-3p0-3-(3)p0-3--||


  F5/Bb             D5  F5/D5F5/Bb           G5/C
   Q   Q   S  E.  E.S    S S  E  Q   S  S  S  S  S  S  S S
|---------------------|------------------------------------||
|---------------------|------------------------------------||
|---------------------|------------------------------------||
|-10--10--10-10--10---|-10---10-10--10-10-10-12-12-12-12---||
|--8---8---8--8---8p0-|--8p0--8--8---8--8--8-10-10-10-10---||
|--8---8---8--8---8p0-|--8p0--8--8---8--8--8-10-10-10-10-0-||


 Interlude
  C D     F      G5/C
  S S S S  S S S  S  +E   E  E  E
|----------------------------------|
|----------------------------------|
|-5-7-7---10-----------------------|
|-x---x----x-----12-(12)-12-12-12\-|
|-3-5-5----8-----10-(10)-10-10-10\-|
|-------0----0-0-10-(10)-10-10-10\-|


  C       D5C     D5      C       D5C     D5
  S S S S E S S S E. Q    S S S S E S S S E. E E
|-----------------------|------------------------||
|-----------------------|------------------------||
|-7-7-7-7-7-7-7-7-7--7--|-7-7-7-7-7-7-7-7-7--7-7-||
|-6-6-6-6-0-6-6-6-0--0--|-6-6-6-6-0-6-6-6-0--0-0-||
|-5-5-5-5-0-5-5-5-0--0--|-5-5-5-5-0-5-5-5-0--0-0-||
|-0-0-0-0-0-0-0-0-0--0--|-0-0-0-0-0-0-0-0-0--0-0-||


 3rd Pre-Chorus
  D5
  S S E E. S S S S S Q    S S E E. S S S S S Q
|-----------------------|-----------------------|
|-----------------------|-----------------------|
|-2-2------2---2-2------|-2-2------2---2-2------|
|-0-0------0---0-0------|-0-0------0---0-0------|
|-0-0------0---0-0------|-0-0------0---0-0------|
|-0-0------0---0-0------|-0-0------0---0-0------|


  C5 A5D5    C5 A5D5   C5 A5D5    C5 A5D5    C5 A5D5
   S S S S S  S S S Q   S S S S    S S S S S  S S S H
|-------------------------------|------------------------||
|-------------------------------|------------------------||
|-------------------------------|------------------------||
|-------------------------------|------------------------||
|-10-7-0-----10-7-0----10-7-0---|-10-7-0-----10-7-0------||
|-10-7-0-----10-7-0----10-7-0---|-10-7-0-----10-7-0------||


 3rd Chorus
  D5  F  D5E C5 A5D5  F  D5  A5C5    D5  F  D5E C5 A5D5  F  D5    F5
  S S  S S S  S S S S  S S S S  E.   S S  S S S  S S S S  S S S S E.
|----------------------------------|---------------------------------|
|----------------------------------|---------------------------------|
|-----10---9----------10-----------|-----10---9----------10-------5--|
|------x---x-----------x-------10--|------x---x-----------x-------3--|
|-0-0--8-0-7-10-7-0-0--8-0-0-7-10--|-0-0--8-0-7-10-7-0-0--8-0-0-0-3--|
|-0-0----0---10-7-0-0----0-0-7-10--|-0-0----0---10-7-0-0----0-0-0-3--|


  D5  F  D5E C5 A5D5  F  D5  A5C5    D5  F  D5E C5 A5D5F5   F5        F5
  Gtr I
  S S  S S S  S S S S  S S S S  E.   S S  S S S  S S S  E S  S  +S  S  E
|----------------------------------|-------------------------------------||
|----------------------------------|-------------------------------------||
|-----10---9----------10-----------|-----10---9---------5----5--(5)----5-||
|------x---x-----------x-------10--|------x---x---------3----3--(3)----3-||
|-0-0--8-0-7-10-7-0-0--8-0-0-7-10--|-0-0--8-0-7-10-7-0--3----3--(3)----3-||
|-0-0----0---10-7-0-0----0-0-7-10--|-0-0----0---10-7-0--3p0--3--(3)p0--3-||
|
| Gtr II
| W                                  H                  E.   S  +E     E
|----------------------------------|-------------------13---13-(13)---13-||
|----------------------------------|--------------------x----x--(x)----x-||
|----------------------------------|-------------------10---10-(10)---10-||
|----------------------------------|-------------------------------------||
|----------------------------------|-------------------------------------||
|----------------------------------|-------------------------------------||


 Outro
  D5      F  D5 E  C5 A5 D5       F  D5 A5 C5
  Gtr I
    S   S  S  S  S  S  S  S     S  S  S  S  S  S  S  S
|------------------------------------------------------|
|------------------------------------------------------|
|---------10-----9----------------10-------------------|
|----------x-----x-----------------x-------10-10-10-10-|
|---0---0--8--0--7-10--7--0-----0--8--0--7-10-10-10-10-|
|---0---0-----0----10--7--0-----0-----0--7-10-10-10-10-|
|
| Gtr II
|  +S   S  S  S  S  S  S  T  T  S  S  S  S  S  S  S  S
|-(13)-13-13-13-13-13-13-13-13-13-13-13-13-13-13-13-13-|
|--(x)--x--x--x--x--x--x--x--x--x--x--x--x--x--x--x--x-|
|-(10)-10-10-10-10-10-10-10-10-10-10-10-10-10-10-10-10-|
|------------------------------------------------------|
|------------------------------------------------------|
|------------------------------------------------------|


  D5    F  D5 E  C5 A5 D5       F  D5      F5
   S  S  S  S  S  S  S  S     S  S S  S      S  S S S
|-----------------------------------------------------|
|-----------------------------------------------------|
|-------10-----9----------------10-----------5--5-5-5-|
|--------x-----x-----------------x-----------3--3-3-3-|
|--0--0--8--0--7-10--7--0-----0--8-0--0------3--3-3-3-|
|--0--0-----0----10--7--0-----0----0--0------3--3-3-3-|
|
|  S  S  S  S  S  S  S  T  T  S  E    S     +Q
|-13-13-13-13-13-13-13-13-13-13-13---13b15-(13)-------|
|--x--x--x--x--x--x--x--x--x--x--x----x-----(x)-------|
|-10-10-10-10-10-10-10-10-10-10-10---10b12-(10)-------|
|-----------------------------------------------------|
|-----------------------------------------------------|
|-----------------------------------------------------|


  D5   F  D5E C5 A5D5  F  D5A5C5
   S S  S S S  S S S S  S S S  S  S  S  S
|-----------------------------------------|
|-----------------------------------------|
|------10---9----------10-----------------|
|-------x---x-----------x-----10-10-10-10-|
|--0-0--8-0-7-10-7-0-0--8-0-7-10-10-10-10-|
|--0-0----0---10-7-0-0----0-7-10-10-10-10-|
|
|  TP
|  W
|-13--------------------------------------|
|--x--------------------------------------|
|-10--------------------------------------|
|-----------------------------------------|
|-----------------------------------------|
|-----------------------------------------|


  D5   F  D5E C5 A5D5  F  D5  F5
   S S  S S S  S S S S  S S S S S S S
|-------------------------------------|
|-------------------------------------|
|------10---9----------10-----5-5-5-5-|
|-------x---x-----------x-----3-3-3-3-|
|--0-0--8-0-7-10-7-0-0--8-0-0-3-3-3-3-|
|--0-0----0---10-7-0-0----0-0-3-3-3-3-|
|
|  TP
|  W
|-------------------------------------|
|-11----------------------------------|
|--x----------------------------------|
|--8----------------------------------|
|-------------------------------------|
|-------------------------------------|


    D5
    Gtr I
    S S E E. S S S S S Q    S S E E. S S S S S Q
||------------------------|------------------------||
||o-----------------------|-----------------------o||
||-----------2---2-2------|----------2---2-2-------||
||--0-0------0---0-0------|-0-0------0---0-0-------||
||o-0-0------0---0-0------|-0-0------0---0-0------o||
||--0-0------0---0-0------|-0-0------0---0-0-------||


Duration Legend
---------------
W - whole; H - half; Q - quarter; E - 8th; S - 16th; T - 32nd; X - 64th; a - acciaccatura
+ - note tied to previous; . - note dotted; .. - note double dotted
Uncapitalized letters represent notes that are staccato (1/2 duration)
Irregular groupings are notated above the duration line
Duration letters will always appear directly above the note/fret number it represents the
duration for.  Duration letters with no fret number below them represent rests.  Multi-
bar rests are notated in the form Wxn, where n is the number of bars to rest for.  Low
melody durations appear below the staff

Tablature Legend
----------------
 h   - hammer-on
 p   - pull-off
 b   - bend
 pb  - pre-bend
 r   - bend release (if no number after the r, then release immediately)
 /\  - slide into or out of (from/to "nowhere")
 s   - legato slide
 S   - shift slide
  - natural harmonic
[n]  - artificial harmonic
n(n) - tapped harmonic
 ~   - vibrato
 tr  - trill
 T   - tap
 TP  - trem. picking
 PM  - palm muting
\n/  - tremolo bar dip; n = amount to dip
 \n  - tremolo bar down
 n/  - tremolo bar up
/n\  - tremolo bar inverted dip
 =   - hold bend; also acts as connecting device for hammers/pulls
 <>  - volume swell (louder/softer)
 x   - on rhythm slash represents muted slash
 o   - on rhythm slash represents single note slash

Misc Legend
-----------
 |  - bar
||  - double bar
||o - repeat start
o|| - repeat end
*|  - double bar (ending)
 :  - bar (freetime)
 $  - Segno
 &  - Coda
Tempo markers -  = BPM(8/16=s8/s16), where s8 = swing 8ths, s16 = swing 16ths


***************************************************************************************
***************************************************************************************
            
Hard to play? Try these video lessons and learn fast. | Correct




comments powered by Disqus
↑ Back to top | Tablatures and chords are parodies/interpretations of the original songs. You may use it for private study, scholarship, research or language learning purposes only