» » »

Papa Roach, Blood Brothers Bass tabs (ver.1)

Artists:  A B C D E F G H I J K L M N O P Q R S T U V W X Y Z # 

Blood Brothers Bass tabs (ver.1)

Papa Roach Tabs
 Rating:
4/5 (4 votes)
Blood Brothers lessons Tabs too difficult? Try these video lessons and learn fast
                
probably the coolest bassline on the entire album.

This is in drop D tuning

This bassline is fingerplucked. but im sure a pick works just the same.


[intro]
G:-------------|
D:-------------| 
A:---5-5-------|
D:--------0-0--|

G:--------10----9-------------10--------------------|
D:--12-12----12---12-10-12-12----12-12-10-10-12-10--|
A:--------------------------------------------------|
D:--------------------------------------------------|

G:--------10----9-------------10--------------------|
D:--12-12----12---12-10-12-12----12-10--------------|
A:-------------------------------------12-12-13-12--|
D:--------------------------------------------------|




[chorus (heavy beginning riff)]
G:-----------------------------------|
D:-----------------------------------|
A:------8---7-3-------8-----3-3-3-3--|
D:--0-0---0-----0-0-0---0-0----------|


G:-----------------------------------|
D:-----------------------------------|
A:------8---7-3-------8--------------|
D:--0-0---0-----0-0-0---0-0-3-3-3-3--|




[verse (words start here)]
G:-----------------------------------|
D:-----------------------------------|
A:------8---7-3-0-----8-----7-3-0-0--|
D:--0-0---0-------0-0---0-0----------|



[pre-chorus]
G:---------------------------------------|
D:---------------------------------------|
A:---------------------------------------|
D:--0-0-------------------------0---0-0--|



[chorus (2nd time)]
G:-----------------------------------|
D:-----------------------------------|
A:------8---7-3-------8-------3------|
D:--0-0---0-----0-0-0---0-0-0--------|

G:-----------------------------------|
D:-----------------------------------|
A:------8---7-3-------8--------------|
D:--0-0---0-----0-0-0---0-0-0-3------|

[very last part looks like this]
G:-----------------------------------|
D:-----------------------------------|
A:------8---7-3-------8--------------|
D:--0-0---0-----0-0-0---0-0-3----/8--|


[post-chorus]
G:-----------------------------------|
D:-----------------------------------|
A:-----------------------------------|
D:--0-0------0-0------0-0------0-0---|


[verse]
[pre chorus]



[extended chorus (3rd time)]
G:-----------------------------------|
D:-----------------------------------|
A:------8---7-3-------8-------3------|
D:--0-0---0-----0-0-0---0-0-0--------|

G:-----------------------------------|
D:-----------------------------------|
A:------8---7-3-------8--------------|
D:--0-0---0-----0-0-0---0-0-0-3------|

[change in the middle and end of chorus]
G:-----------------------------------|
D:-----------------------------------|
A:------8---7-3-------8--------------|
D:--0-0---0-----0-0-0---0-0-3--3--3--|



[transition into bridge]
G:-------------------------------------------------------------|
D:-------------------------------------------------------------|
A:-------------------------------------------------------------|
D:--8--8-----7-8-7-8-8----7-8-7-8-8----8--8-8-8-8-10-10-10-10--|



[bridge]
G:-------------------------------------------------------------|
D:-------------------------------------------------------------|
A:--3-h5-----8-8-8-3-3-3--------5--------5---------5--------5--|
D:-------0-0--------------0-0-0----0-0-0-----0-0-0----0-0-0----|


[changed pre-chorus]
G:---------------------------------------|
D:---------------------------------------|
A:---------------------------------------|
D:--0-0-------------------------0---0-0--|

G:---------------------------------------|
D:---------------------------------------|
A:--3-0----3-0-----3-0-----3-0----3-0----|
D:------0------0-------0-------0------0--|


[3nd chorus 2 times]
[1st chorus 2 times]
[pre chorus]
            
Submit corrections

comments powered by Disqus
↑ Back to top | Papa Roach Bass for Blood Brothers. Lyrics for acoustic guitar and electric guitar. Tablatures and chords are parodies/interpretations of the original songs. You may use it for private study, scholarship, research or language learning purposes only