» » »

Papa Roach, Blood Brothers Tabs (ver.2)

Artists:  A B C D E F G H I J K L M N O P Q R S T U V W X Y Z # 

Blood Brothers Tabs (ver.2)

Papa Roach Tabs
Rating:
5/5 (5 votes)
Blood Brothers lessons Tabs too difficult? Try these video lessons and learn fast
                Blood Brothers-Papa Roach
Infest

Drop D
D A D G B E

Riff A x5

e---------------------------------------------------
b---------------------------------------------------
g-------10----9-------------10----------------------
d-12-12----12---10----12-12----12-12-10-10-12-10----
a------------------12-------------------------------
d---------------------------------------------------

e---------------------------------------------------
b---------------------------------------------------
g-------10----9-------------10----------------------
d-12-12----12---10----12-12----12-10----------------
a------------------12----------------12-12-13-12----
d---------------------------------------------------

gtr 2. w/ wah x3

e---------------------------------------------------
b-15-15-15-15-15-15-15-15-15-15-15-15-15-15-15-15---
g---------------------------------------------------
d-12-12-12-12-12-12-12-12-12-12-12-12-12-12-12-12---
a---------------------------------------------------
d---------------------------------------------------

Fig 1.

e---------------------------------------------------
b---------------------------------------------------
g----10---9---------10------------------------------
d-----x---x----------x-----10-10-10-10--------------
a-0-0-8-0-7-10-7-0-0-8-0-7-10-10-10-10--------------
d-0-0---0---10-7-0-0---0-7-10-10-10-10--------------

e---------------------------------------------------
b---------------------------------------------------
g----10---9---------10-----5-5-5-5------------------
d-----x---x----------x-----3-3-3-3------------------
a-0-0-8-0-7-10-7-0-0-8-0-0-3-3-3-3------------------
d-0-0---0---10-7-0-0---0-0-3-3-3-3------------------

Verses Fig 2.x8

e---------------------------------------------------
b---------------------------------------------------
g---------------------------------------------------
d---------------------------------------------------
a-----8---7----------8-----7------------------------
d-0-0---0---10-7-0-0---0-0---10-7-7-----------------

Pre-Chorus:

e---------------------------------------------------
b---------------------------------------------------
g----------2---2-2----2-2------2---2-2--------------
d-0-0------0---0-0----0-0------0---0-0--------------
a-0-0------0---0-0----0-0------0---0-0--------------
d-0-0------0---0-0----0-0------0---0-0--------------

Chorus Fig 3. 

e---------------------------------------------------
b---------------------------------------------------
g----10---9---------10------------------------------
d-----x---x----------x-------10---------------------
a-0-0-8-0-7-10-7-0-0-8-0-0-7-10---------------------
d-0-0---0---10-7-0-0---0-0-7-10---------------------

e---------------------------------------------------
b---------------------------------------------------
g----10---9---------10-------5----------------------
d-----x---x----------x-------3----------------------
a-0-0-8-0-7-10-7-0-0-8-0-0-0-3----------------------
d-0-0---0---10-7-0-0---0-0-0-3----------------------

e---------------------------------------------------
b---------------------------------------------------
g----10---9---------10------------------------------
d-----x---x----------x-------10---------------------
a-0-0-8-0-7-10-7-0-0-8-0-0-7-10---------------------
d-0-0---0---10-7-0-0---0-0-7-10---------------------

e---------------------------------------------------
b---------------------------------------------------
g----10---9---------10-------5----------------------
d-----x---x----------x-------3----10----------------
a-0-0-8-0-7-10-7-0-0-8-0-0-0-3-----8----------------
d-0-0---0---10-7-0-0---0-0-0-3-----8----------------

...kill kill kill...

e---------------------------------------------------
b---------------------------------------------------
g---------------------------------------------------
d10-10-1010-10---10--10-10---101010-12-12-12-12-----
a-8--8--8-8--8--0-8-0-8--8----8-8-8-10-10-10-10-----
d-8--8--8-8--8--0-8-0-8--8----8-8-8-10-10-10-10-0---

Interlude:

e---------------------------------------------------
b---------------------------------------------------
g-5/7-7--10--------------------7-7-7-7--7-7-7--7-7--
d-x-x-x---x-----12--12--12-12--6-6-6-0--6-6-0--0-0--
a-3/5-5---8-----10--10--10-10--5-5-5-0--5-5-0--0-0--
d-------0---0-0-10--10--10-10--0-0-0-0--0-0-0--0-0--

e---------------------------------------------------
b---------------------------------------------------
g-7-7-7-7----7-7-7-7-----7-7------------------------
d-6-6-6-0----6-6-6-0-----0-0------------------------
a-5-5-5-0----5-5-5-0-----0-0------------------------
d-0-0-0-0----0-0-0-0-----0-0------------------------

Pre Chorus

e---------------------------------------------------
b---------------------------------------------------
g-2-2----2---2-2----2-2----2---2-2------------------
d-0-0----0---0-0----0-0----0---0-0------------------
a-0-0----0---0-0----0-0----0---0-0--10-7-0--10-7-0--
d-0-0----0---0-0----0-0----0---0-0--10-7-0--10-7-0--

that’s aboot all of it

trevor jones
            

comments powered by Disqus
↑ Back to top | Papa Roach Tabs for Blood Brothers. Lyrics for acoustic guitar and electric guitar. Tablatures and chords are parodies/interpretations of the original songs. You may use it for private study, scholarship, research or language learning purposes only