» » »

Blood Brothers Tabs (ver.3)

Artists:  A B C D E F G H I J K L M N O P Q R S T U V W X Y Z # 

Blood Brothers Tabs (ver.3)

Papa Roach
Rating:
5/5 (5 votes)

Hard to play? Try these video lessons and learn fast.
                BAND: Papa Roach
TUNING: Dropped D (D-A-D-G-B-E)

Hello everybody!! Today, 03/08/03 is one of the bests days of my life, cause I've 
just read that Papa Roach will probably come to Argentina Soon!!!!!!!!!!!!!!!!!
I can't believe it!! It's something that I always dreamed but I never thought
I think it's a little ''late'' to do it but better late than never!!!!!!!
Hey! Check my others Papa Roach's tabs out!!!
LEGACY- SHE LOVES ME NOT- LIFE IS A BULLET- TIME AND TIME AGAIN- LOVEHATETRAGEDY-
BORN WITH NOTHING, DIE WITH EVERYTHING- WALKING THROUGH BARBED WIRE. 

Ok, here we go. This is not a hard song to play, it just take some practice.

Intro
----------------------------------------------------
----------------------------------------------------
7--7--10--7--9---------7--7--10--7--7----------7----
----------------10--7------------------10--10-----10
----------------------------------------------------
----------------------------------------------------

----------------------------------------------------
----------------------------------------------------
7--7--10--7--9---------7--7--10--7--7---------------
----------------10--7------------------7--7--8--7---
----------------------------------------------------
----------------------------------------------------

Main Riff
--------------------------------------------------------------
--------------------------------------------------------------
-------10-------9--------------------10-----------------------
0--0----x---0---x----10--7----0--0----x----0--0----10-10-10-10
0--0----8---0---7----10--7----0--0----8----0--0----10-10-10-10
0--0--------0--------10--7----0--0---------0--0----10-10-10-10

--------------------------------------------------------------
--------------------------------------------------------------
-------10-------9--------------------10-----------------------
0--0----x---0---x----10--7----0--0----x----0--0-----3--3--3--3
0--0----8---0---7----10--7----0--0----8----0--0-----3--3--3--3
0--0--------0--------10--7----0--0---------0--0-----3--3--3--3

Riff 1
------------------------------------------------
------------------------------------------------
------------------------------------------------
------------------------------------------------
------8-----7------------------8--------7-------
0--0-----0-----10--7-----0--0-----0--0-----10--7

Pre-Chorus
--------------
--------------
--------------
0--0----0--0-0
0--0----0--0-0
0--0----0--0-0     x2

Interludio
--------
--------
--------
10*-----
-8*-----
-8*-----    * = LET RING.

Interludio 2
---------------------
---------------------
---------------------
10--10--10----9-10--9
-8---8---8----7--8--7
-8---8---8----7--8--7

Then:
--------------------------------
--------------------------------
--------------------------------
10--10--10--10--10--10----10-10-
-8---8---8---8---8---8----10-10-
-8---8---8---8---8---8----10-10-

-----------------------------------------------------------------------------
-----------------------------------------------------------------------------
5----7---10-----------5--5--5--5---5s7---7--7--7-------7--7--7-------7--7----
x----x----x----0--0---x--x--x--x---x-x---x--x--x---0---x--x--x---0---x--x---0
3----5----8----0--0---3--3--3--3---3s5---5--5--5---0---5--5--5---0---5--5---0
---------------0--0--------------------------------0-------------0----------0

------------------------------------
------------------------------------
7--7--7-------7--7--7-------7--7----
x--x--x---0---x--x--x---0---x--x---0
5--5--5---0---5--5--5---0---5--5---0
----------0-------------0----------0

Interludio 3

This part goes after the third Pre-Chorus you play in the song.
-------------------------------------
-------------------------------------
-------------------------------------
10--7--12----10--7--12------10--7--12
10--7--12----10--7--12------10--7--12
10--7--12----10--7--12------10--7--12

----------------------
----------------------
----------------------
10--7--12----10--7--12
10--7--12----10--7--12
10--7--12----10--7--12

Ending
------
------
------
0--0-0
0--0-0
0--0-0


Order:

* Intro               For several times.
* Main Riff           x2
* Riff 1              For several times.
* Pre-Chorus          x2
* Main Riff           x2
* Interludio          
* Intro               Only for one time.
* Riff 1              For several times.
* Pre-Chorus          x2
* Main Riff           x2
* Interludio 2
* Pre-Chorus
* Interludio 3        
* Main Riff           x4
* Pre-Chorus          x2
* Ending

Ufffffffffhhh... That's the whole song. A little bit long, but easy to play.
I checked it out once and once again and it's 100 % right. All you have to
do now is enjoy!! Thanks!!

Hope you like it.
            
Hard to play? Try these video lessons and learn fast. | Correct




comments powered by Disqus
↑ Back to top | Tablatures and chords are parodies/interpretations of the original songs. You may use it for private study, scholarship, research or language learning purposes only