>
 >
Blood Brothers 3

Blood Brothers 3 Bass Tabs

Papa Roach - Blood Brothers 3 chords, tabs, tablatures, lyrics

Guitar lessons | Add/correct | Request | Top 50 tabs Artists:  A B C D E F G H I J K L M N O P Q R S T U V W X Y Z 0-9

Blood Brothers 3 Bass Tabs – Papa Roach

CD, Sheet music, Poster

Do you like Blood Brothers 3? Share with your friends now
Bass TabsBass Tabs v2Bass Tabs v3Bass Tabs v4Bass Tabs v5TabsTabs v2Tabs v3Tabs v4Tabs v5Tabs v6
Drop D Tuning. 
No one is likly to care, But this song is in D Minor.




Enjoy!!

L - Hold Note
H - Hammer on
P - Pull-off
S - Slide



Intro:

G||---------------------|---------------------|
D||--0--0--L------------|---------------------|
A||---------------------|---------------------|
D||---------------------|--0--0--L------------|

|---------------------|---------------------|
|--0--0--L------------|---------------------|
|---------------------|---------------------|
|---------------------|--0--0--L------------|


0:18


--7--7--10--7--9---------7--|
------------------10--7-----|
----------------------------|
----------------------------|

--7--10--7--7----------7------|
---------------10--10-----10--|
------------------------------|
------------------------------|

--7--7--10--7--9---------7--|
------------------10--7-----|
----------------------------|
----------------------------|

--7--10--7--7---------------|
---------------7--7--8--7---|
----------------------------|
----------------------------|

Verse:
 
--------------------------|
--------3--0--2-----------|
-----------------3--0-----|
--0--0-----------------0--|

 
--------------------------|
-----3--0-----------------|
-----------0--3--3--3--3--|
--0-----------------------|


--------------------------|
--------3--0--2-----------|
-----------------3--0-----|
--0--0-----------------0--|


--------------------------|
-----3--0-----------------|
--------------------------|
--0--------0--3--3--3--3--|

Pre-Chorus:

-----------------------|
-----------------------|
-----------------------|
-----0--0--------------|


------------------------|
------------------------|
------------------------|
--0--0---------------0--|

Chorus:

--------------------------|
--------3--0--2-----------|
-----------------3--0-----|
--0--0-----------------0--|

   
-------------------------|
-----3--0----------------|
--------------0---3------|
--0--------0-------------|

  
--------------------------|
--------3--0--2-----------|
-----------------3--0-----|
--0--0-----------------0--|

      
-------------------------|
-----3--0----------------|
-------------------------|
--0--------0--0---3------|

Interlude:
       
-------------------|-------------------|
-------------------|-------------------|
--1----------------|--1----------------|
-------------------|-------------------|

---------------------|
---------------------|
--1--------1------0--|
---------------------|

-----------------------|
-----------------------|
--1--0--1----1------0--|
-----------------------|
   
----------------------|
----------------------|
--1--0--1----1--------|
----------------------|

--------------------------|
--------------------------|
--1--1--1--3--3--3--3-----|
-----------------------0--|
 
--------------------------|
-----0--0-----3--0--------|
--3--------------------3--|
-----------0--------0-----|

----------------------|
----------------------|
--L----3----3----3----|
----------------------|


------------------------|
-----------0------------|
------------------------|
--0--0--0---------0--0--|

       
----------------------|
-----0----0-----------|
----------------------|
--0----------0--------|


------------------------|
-----------0------------|
------------------------|
--0--0--0---------0--0--|

   
-----------------------||
-----0----0------------||
-----------------------||
--0----------0----0----||





Comments


Popular Papa Roach tabs & chords
Alive (N' Out Of Control) 1 Bass Tabs
Done With You Bass Tabs
Lifeline 2 Bass Tabs
Snakes Bass Tabs
Forever Accoustic Chords
She Loves Me Not 1 Chords
Between Angels And Insects Tabs
Between Angels And Insects 7 Tabs
Singular Indestructable Droid 1 Tabs
Tear My Heart Open Intro Tabs


Song lyrics



↑ Back to top | Tablatures and chords are parodies/interpretations of the original songs. You may use it for private study, scholarship, research or language learning purposes only
© 2014 AZChords.com Contact us | Privacy policy | DMCA | Add/correct tabs | Request tabs | Top 50 tabs