» » »

I Don't Want To Change The World Tabs (ver.2)

Artists:  A B C D E F G H I J K L M N O P Q R S T U V W X Y Z # 

I Don't Want To Change The World Tabs (ver.2)

Ozzy Osbourne
Rating:
0/5 (0 votes)

Hard to play? Try these video lessons and learn fast.
                "(1)
----------------------------------------------------------------------------
           I Dont Want To Change The World - Ozzy Osbourne
----------------------------------------------------------------------------

(hi guys i'm pretty sure that this guitar tab is almost perfect,
it took me about 5 1/2 hours to write, so i put in much time
and effort into this, so could you repay me by rating
 and commenting accordingly? Thanks alot ROCK ON!)
| /  slide up
| \  slide down
| h  hammer-on
| p  pull-off
| ~  vibrato
| +  harmonic
| x  Mute note
| PH Pinch Harmonic
Tuning: Standard (EADGBe)
INTRO:
e|-------------------------------------------------------|
B|-------------------------------------------------------|
G|---------------------------5--5-/-7--------------------|
D|-------0-h2-----2----------5--5-/-7---0-h2-----2----2~-|
A|-15\---0----0-0-0-0-0-0-0--3--3-/-5---0----0-0-0----0--|
E|--------------------------------------------------3----|

On this pinch harmonic at the 3 fret on the 5th string,
bend the string up one full step, then bring it back down
and preform a vibrato, still holding the pinch harmonic.
(Last note on this staff) (pinch place is right in front
 of the middle pickup, if you have a stratocaster pickup
 layout guitar)
e|-------------------------------------------------------------|
B|-------------------------------------------------------------|
G|----------------------------5--5-/-7-------------------------|
D|------0h2-------2-----------5--5-/-7---0h2------2---2--------|
A|-7\---0----0-0--0--0-0-0-0--3--3-/-5---0---0-0--0---0--3(PH)-|
E|--------------------------------------------------3----------|

This is the main riff:
e|-------------------------------------------------------------|
B|-----------------------------------------------------3-3-----|
G|------------------------5--5-/-7---------------------2-0-----|
D|--0h2-------2-----------5--5-/-7---0h2------2p0------0-X-----|
A|--0----0-0--0--0-0-0-0--3--3-/-5---0---0-0--0----0-0---3-----|
E|-------------------------------------------------------------|

(Same thing on this PH)
e|-------------------------------------------------------------|
B|-------------------------------------------------------------|
G|---------------------------5--5-/-7--------------------------|
D-----0-h2-------2-----------5--5-/-7---0-h2------2p0----------|
A|----0-----0-0--0--0-0-0-0--3--3-/-5---0----0-0--0---0-0-3----|(PH)
E|-------------------------------------------------------------|

Zakk holds this A5 for 11 beats ( Whole, Whole, Dotted Half)
e|--------------------------------------------------------|
B|--------------------------------------------------------|
G|------------------------------------------0-------------|
D|-2----------------------------------------0-------------|
A|-0------------------------------------------------------|
E|--------------------------------------------------------|

This is a genius guitar lick that was origan*lly used by EVH, it's
 a bit tricky to learn, but with practice, i know for sure you can
get it :D.  What you do is pull off ALL OF THESE NOTES, and take
 your Right hand palm and very gently touch the strings by the
bridge, and slowly move your RH palm down the strings, towards
the direction of the neck.  You will hear alot of harmonics all
 over the place which makes a very cool sound effect, with
 practice and right timing, you can get it just like it is
 on the CD.
e|-----------------------------------------------------|
B|--5-3-0-5-3-0-5-3-0-5-3-0-5-3-0-5-3-0----------------|
G|-(H)(H)(H)(H)(H)(H)(H)(H)(H)(H)(H)(H)(H)-------------|
D|-----------------------------------------------------|
A|-----------------------------------------------------|
E|-----------------------------------------------------|

e|---------------------------------------------------------------|
B|--------------------------------------------------------3--3---|
G|-------------------------------5-5-/-7------------------2--0---|
D|----------0h2------2-----------5-5-/-7--0h2-----2p0-----0--X---|
A|--/-15-\--0---0-0--0--0-0-0-0--3-3-/-5--0---0-0----0-0-----3---|
E|---------------------------------------------------------------|

e|-------------------------------------------------------------|
B|-------------------------------------------------------------|
G|---------------------------5--5-/-7--------------------------|
D|----0-h2-------2-----------5--5-/-7---0-h2------2p0----------|
A|----0-----0-0--0--0-0-0-0--3--3-/-5---0----0-0--0---0-0-3----|(PH)
E|-------------------------------------------------------------|

Zakk holds this a5 out for 8 beats (whole, whole)
e|--------------------------------------------------------|
B|--------------------------------------------------------|
G|--------------------------------------------------------|
D|---2----------------------------------------------------|
A|---0----------------------------------------------------|
E|--------------------------------------------------------|

e|---------------------------------------------------------------|
B|--------------------------------------------------------3--3---|
G|-------------------------------5-5-/-7------------------2--0---|
D|----------0h2------2-----------5-5-/-7--0h2-----2p0-----0--X---|
A|--/-15-\--0---0-0--0--0-0-0-0--3-3-/-5--0---0-0----0-0-----3---|
E|---------------------------------------------------------------|

On this PH you can just throw in a wild vibrato.
e|-----------------------------------------------------------------|
B|-----------------------------------------------------------------|
G|---------------------------5--5-/-7------------------------------|
D|----0-h2-------2-----------5--5-/-7---0-h2------2p0------12-(PH)-|
A|----0-----0-0--0--0-0-0-0--3--3-/-5---0----0-0--0---0-0----------|
E|-----------------------------------------------------------------|

Chorus
e|--------------------------------------------------|
B|---------3---3------3---3----3----------------2---|
G|--2------2---0------2---0----2----------------2---|
D|--2------0---0------0---0----0----------------0---|
A|--0----------X----------X-------------------------|
E|------0------3----0-----3--------3(bend 1/4th)----|

for this part Zakk plays it an octave down live, because its not as
hard.  But on the recording he uses this so depending on what version
you are trying to learn i have added both.
e|------------------------------------------------------|
B|------------------------------------------------------|
G|----------14h16-16(full bend)-16p14-------------------|
D|----14h16--------------------------16p14--------------|
A|----------------------------------------16p14p12------|
E|------------------------------------------------------|
TOP: How its played on the recording
BOTTOM: How its played live
e|------------------------------------------------------|
B|------------------------------------------------------|
G|--------2h4-4(full bend)-4p2--------------------------|
D|----2h4----------------------4p2----------------------|
A|---------------------------------4p2p0----------------|
E|------------------------------------------------------|

For this section when you play the 8th fret (B str) and 10th fret
(G str) take the tenth fret until the two notes are the same pitch.
e|------------------------------------------------------|
B|---------3---3------3---3----3-----8---8---8---8------|
G|--2------2---0------2---0----2-----10--10--10--10-----|
D|--2------0---0------0---0----0------------------------|
A|--0----------X----------X-----------------------------|
E|------0------3----0-----3-----------------------------|

e|---------------------------------------------------------------|
B|--------------------------------------------------------3--3---|
G|-------------------------------5-5-/-7------------------2--0---|
D|----------0h2------2-----------5-5-/-7--0h2-----2p0-----0--X---|
A|--/-15-\--0---0-0--0--0-0-0-0--3-3-/-5--0---0-0----0-0-----3---|
E|---------------------------------------------------------------|

e|-------------------------------------------------------------|
B|-------------------------------------------------------------|
G|---------------------------5--5-/-7--------------------------|
D|----0-h2-------2-----------5--5-/-7---0-h2------2p0----------|
A|----0-----0-0--0--0-0-0-0--3--3-/-5---0----0-0--0---0-0-3----|(PH)
E|-------------------------------------------------------------|

e|----------------------------------------------------------------|
B|---------------------------------------------------------3--3---|
G|------------------------------5---5----------------------2--0---|
D|-2-(Palm Mute this part :) )--5---5--2-------------------0--X---|
A|-0--000000000000000000000000----0----0-00000000000/19~~~----3---|
E|----------------------------------------------------------------|

e|---------------------------------------------------------------|
B|--------------------------------------------------3--3---------|
G|-------------------------5-5-/-7------------------2--0---------|
D|----0h2------2-----------5-5-/-7--0h2-----2p0-----0--X---------|
A|----0---0-0--0--0-0-0-0--3-3-/-5--0---0-0----0-0-----3---------|
E|---------------------------------------------------------------|

Throw a wild vibrato on this PH
e|------------------------------------------------------------------|
B|------------------------------------------------------------------|
G|---------------------------5--5-/-7----------------------5(PH)~~--|
D|----0-h2-------2-----------5--5-/-7---0-h2------2p0---------------|
A|----0-----0-0--0--0-0-0-0--3--3-/-5---0----0-0--0---0-0-----------|
E|------------------------------------------------------------------|

Chorus 2:
e|--------------------------------------------------|
B|---------3---3------3---3----3----------------2---|
G|--2------2---0------2---0----2----------------2---|
D|--2------0---0------0---0----0----------------0---|
A|--0----------X----------X-------------------------|
E|------0------3----0-----3--------3(bend 1/4th)----|

e|------------------------------------------------------|
B|------------------------------------------------------|
G|----------14h16-16(full bend)-16p14-------------------|
D|----14h16--------------------------16p14--------------|
A|----------------------------------------16p14p12------|
E|------------------------------------------------------|

On these pinch harmonics bend 1/2 on all of them
e|----------------------------------------------------------------------|
B|---------3---3------3---3----3----------2------2-------2--------------|
G|--2------2---0------2---0----2----------2------2-------2--------------|
D|--2------0---0------0---0----0----------0------0-------0--------------|
A|--0----------X----------X---------------------------------------------|
E|------0------3----0-----3------3(b 1/4)---3(PH)---3(PH)----3(PH)------|

Here is where the song changes. :)

Play this 4 times.
e|------------------------------------------------------------|
B|------------------------------------------------------------|
G|-----------------------------------------------------4--2---|
D|-----------------------------------------------------4--2---|x4
A|-----4-----4--------4-----4--4-----4-----4--4--2p0---2--0---|
E|--0--2--0--2--0--0--2--0--2--2--0--2--0--2--2---------------|


SOLO !!!
e|-----------------------------------------------|
B|------8-----8--------10b(full)-8---10---8/-----|
G|--8h9---8h9---8h9p8--------------9----9--------|
D|-----------------------------------------------|
A|-----------------------------------------------|
E|-----------------------------------------------|

e|--15----------------------------------15----------------------|
B|-----15----------------------------------15-------------------|
G|--------14b(full)-12----12--14b(full)-------14b(full)-14~~~---|
D|---------------------14---------------------------------------|
A|--------------------------------------------------------------|
E|--------------------------------------------------------------|

For all of these bends on the 18th fret, bend 1/2
e|------17-----17-----17-----17--17b(full)---------|
B|--18b----18b----18b----18b-----17b(full)---------|
G|-------------------------------------------------|
D|-------------------------------------------------|
A|-------------------------------------------------|
E|-------------------------------------------------|

e|----17-----16----15----14----15--------------------------|
B|-14----14-----14----14----14-----16b(full)-14------------|
G|---------------------------------------------------------|
D|---------------------------------------------------------|
A|---------------------------------------------------------|
E|---------------------------------------------------------|

e|--------------------------------------------------------|
B|----------------------------------------------8b(full)--|
G|--------------5(PH)~--------------7-7-8-9-7-------------|
D|--5-6-7-5-6-7--------7-8-9-7-8-9------------9-----------|
A|--------------------------------------------------------|
E|--------------------------------------------------------|

For the part where you bend the 16th fret on the G str., tap and
hold bend on 21, then while holding bend move L.H. down to the
 4th fret, and pull off with the R.H.
e|--------------------------------------------------------|
B|----------11b-----------14b-----------------------------|
G|--10-9-8------12-11-10----------16b--21T--4p2p0h2-------|
D|--------------------------------------------------------|
A|--------------------------------------------------------|
E|--------------------------------------------------------|

For all of these bends, bend the g string notes until they R the
same pitch and for all of the pull offs/harmonics, do the same
thing as above.
e|-----------------------------------------------------------|
B|---5---5---5---3-------------------------------------------|
G|---7b--7b--7b--5b-------5p3p0h5p3p0h5p3p0h5p3p0h5p3p0------|
D|-----------------------------------------------------------|
A|-----------------------------------------------------------|
E|-----------------------------------------------------------|


e|-------------------------------------------------|
B|--9---9---9---5---5---------5---5---5---5---3--/-|
G|--7b--7b--7b--3b--3--5(PH)--7b--7b--7b--7b--5b-/-|
D|-------------------------------------------------|
A|-------------------------------------------------|
E|-------------------------------------------------|

e|-----11-12--17-17p15-12-12----12-17-17p15p12-12-------12-17-12-----|
B|-14b-----0-----------------15-------------------17-15----------16b-|
G|-------------------------------------------------------------------|
D|-------------------------------------------------------------------|
A|-------------------------------------------------------------------|
E|-------------------------------------------------------------------|

e|-12-15-17-21p17-15----21-17-15----21-17-16-16-18-22-18------|
B|-------------------20----------20-----------------------22b-|
G|------------------------------------------------------------|
D|------------------------------------------------------------|
A|------------------------------------------------------------|
E|------------------------------------------------------------|

e|--18-22-18-22b----|
B|-----------21b----|
G|------------------|
D|------------------|
A|------------------|
E|------------------|

bridge:
e|------------------------------5----------------------|
B|-----------------3--------3--------------3---2-------|
G|-2-----------0-----0---------------2-X-----2----2----|
D|-2---2--4/5----5-----0--4---4----4-------------------|
A|-0-------------------------------------0----------3b-|
E|-----------------------------------------------------|

e|--------------------------------5---------------|
B|--------2--------------3------3---3-------------|
G|------2---2-------0---------0-------0~----------|
D|----2-------2-4/5---5-----4---------------------|
A|--0---------------------------------------------|
E|------------------------------------------------|

e|------------------------------------------------------5-------|
B|------5-----------------------2-----------3---------3---3-----|
G|--4/6---6\4-2-------------------2-----0-----0-----0-------0---|
D|--------------2h4p2-------2-2-----2-5---5-----5-4-------------|
A|---------------------4-2--0-----------------------------------|
E|--------------------------------------------------------------|

e|---------------------------------------------------5----------|
B|-----3---2-------------2-------------3-----3-----3---3/-17b---|
G|-------2---2---------2---2-------0-------0-----0--------16b---|
D|-------------------2-------2-4/5---5---5-----4----------------|
A|--0----------3b--0--------------------------------------------|
E|--------------------------------------------------------------|

For the next verse you play the main riff that you do for the
other verses

Chorus: same thing as the first chorus
except when he Ozzy finishes saying, I dont want the world to
change me...play this

Hammer On
e|-------------------------------------------------|
B|--2-4-2-4-2-4-2-4-2-4-2-4-2-4-2-4-2--------------|
G|-------------------------------------------------|
D|-------------------------------------------------|
A|-------------------------------------------------|
E|-------------------------------------------------|
Finish the song with one last P.H. on the 3rd fret on the 6th string


===========================================================================
===========================================================================
"            
Hard to play? Try these video lessons and learn fast. | Correct




comments powered by Disqus
↑ Back to top | Tablatures and chords are parodies/interpretations of the original songs. You may use it for private study, scholarship, research or language learning purposes only