» » »

I Don't Want To Change The World Tabs (ver.1)

Artists:  A B C D E F G H I J K L M N O P Q R S T U V W X Y Z # 

I Don't Want To Change The World Tabs (ver.1)

Ozzy Osbourne
Rating:
0/5 (0 votes)

Hard to play? Try these video lessons and learn fast.
                Tune down 1/2 step: Eb Ab Db Gb Bb Eb


|-------|-----------------------------|----------------------------
|-------|-----------------------------|----------------------------
|-------|-----------------------------|---------------2--"Huh!"----
|-------|-0h2-----0h2-------------5/7-|-0h2-----2p0---2------------
|-x/17\-|-0---0-0-0---0-0-0-0-3p0-3/5-|-0---0-0-0-----0------------
|-------|-----------------------------|-------------3--------------

2nd time:
|-----------------------------|------------------------------------
|-----------------------------|------------------------------------
|-----------------------------|------------------------------------
|-0h2-----0h2-------------5/7-|-0h2-----2p0-----PH--PH-------------
|-0---0-0-0---0-0-0-0-3p0-3/5-|-0---0-0-0---0-0-5~~-3~~------------
|-----------------------------|------------------------------------

"I don't wanna change the world..."
|------------------------------------------------------------------
|----------3---3----------------------3-----3----------------------
|-2--------2---0----------------------0-----2-------------2--------
|-2--------0---0------------------0---0-----0-------------2--------
|-0-----------------------------------------0-----0-------0--------
|--------0-2---3------------------2---3--------------3-------------

|----------------------------------||2nd time:---------------------
|----------17----------------------||-------8----------------------
|-------16^--^16-14----------------||----10^-^10^-^10^-^10^~~~~~---
|-14-14-------------16-14----------||------------------------------
|-------------------------16-14----||------------------------------
|-------------------------------17-||------------------------------

"You know it ain't easy...."
|-----------------------------|------------------------------------
|-----------------------------|------------------------------------
|-----------------------------|---------------4---2----------------
|-----------------------------|---------------4---2----------------
|---4--4-4-----4----4---4-4-4-|----4--4-4-----2---0----------------
|-0-2--2-2-0-0-2--0-2---2-2-2-|-0--2--2-2-0-0----------------------

Guitar Solo:
|-----------------------------------------|-15-----------------------
|-----8-----8-------10^-^10-8---10---8~~~-|---15---------------------
|-8h9---8h9---8h9p8-----------9----9------|-----14^-^14-12----12-14^-
|-----------------------------------------|----------------14--------
|-----------------------------------------|--------------------------
|-----------------------------------------|--------------------------

--15-------17^~~~~(17)\-|------17------17------17-----(17)-----------|
------------------------|-17^-----17^-----17^-----17^-----17^-^17p15-|
-----14-12--------------|--------------------------------------------|
------------------------|--------------------------------------------|
------------------------|--------------------------------------------|
------------------------|--------------------------------------------|

|-17----16----15----14----15------------|
|----14----14----14----14---------PH----|
|----------------------------16^--14~~~-|
|---------------------------------------|
|---------------------------------------|
|---------------------------------------|

|-PM..........------PM..........-------|-----------------------------------------
|-------------PH~~~~------------PH~~~~-|-----------------------------------------
|-------------5-----------------7------|-------------------------------------14~-
|-5-6-7-5-6-7-------7-8-9-7-8-9--------|-7-8-9-7-8-9-121314121314141516141516----
|--------------------------------------|-----------------------------------------
|--------------------------------------|-----------------------------------------

|-------------------/=========\-------------------
|----------------T-/-----------\------------------
|-16^--^(16)p14-21^-(21)-p-4----(4)-2h4-2~~~~~~~~-
|-------------------------------------------------
|-------------------------------------------------
|-------------------------------------------------

|--------------------------------------|----------------------|
|----5-----5-----5----5--3-~~~-----(0)-|---7---7---7---7---5--|
|-7^----7^----7^---7^----5^-----x\-(0)-|-9^--9^--9^--9^--7^---|
|--------------------------------------|----------------------|
|--------------------------------------|----------------------|
|--------------------------------------|----------------------|

|-------|---------------------|--------------1215-171512------171512-
|-5--5--|---5---5---5---5---3~~~~~---------15-----------151215-------
|-7--5--|-7^--7^--7^--7^--5^--|-----x\-------------------------------
|-------|---------------------|--------------------------------------
|-------|---------------------|--------------------------------------
|-------|---------------------|---------(0)--------------------------

These are 20's, 21's and 22's...not 1's, 2's and 0's...

--------171512------171512----------201715------201715------2220---------
-151215-------151215------17-15/1717------201720------201720----22222022-

-222017----------|-------------------------------------------------
--------22-20-22-|-------------------------------------------------
-----------------|-------------------------------------------------
-----------------|-------------------------------------------------
-----------------|-------------------------------------------------
-----------------|-------------------------------------------------

"Don't tell me stories cause yesterays's glories..."
|-------0---------------------------------5---------------0--------
|-----------0--------3---5---3--------3-------3--------------0-----
|-----6-------6----------------0----------------0-------6------6---
|---7-----------7--5---5---------5--4---4---------4---7----------7-
|-0-------------------------------------------------0--------------
|------------------------------------------------------------------
            
Hard to play? Try these video lessons and learn fast. | Correct




comments powered by Disqus
↑ Back to top | Tablatures and chords are parodies/interpretations of the original songs. You may use it for private study, scholarship, research or language learning purposes only