» » »

Ghost Behind My Eyes Tabs (ver.2)

Artists:  A B C D E F G H I J K L M N O P Q R S T U V W X Y Z # 

Ghost Behind My Eyes Tabs (ver.2)

Ozzy Osbourne
Rating:
0/5 (0 votes)

Hard to play? Try these video lessons and learn fast.
                ``
 INTRO:                                                           
e|--------0-0------------0-|----------------------0------------|
b|------0-----0--------0---|--------0---------------0----------|
g|-0h1----------1----------|----------2-------2-------2--------|
D|-------------------2-----|-----4------4-------2-------2------|
A|---------------3/4-------|-4/5----------5\4------------------|
E|-0-----------------------|-----------------------------------|

e|----------0-------------0-|-----------------------0---|
b|-------------0----------0-|---------0-------------0---|
g|----0h1--------1--------2-|-------0---0-----------2---|
D|----------------2-----2---|-----4-------4-------2-----|
A|------------------3/4-----|-4/5-----------5-5\4-------|
E|-0------------------------|---------------------------|



   There is a person living in my head....
e|----------0-------------0-|---------0---------------0--------|
b|-------------0----------0-|-----------0---------------0------| ________________________________
g|----0h1--------1--------2-|-------2-----2---------2-----2----| |After the intro just play this| 
D|----------------2-----2---|-----4---------4-----2---------2--| |Untill the other verse.....   |
A|------------------3/4-----|-4/5-------------5\4--------------| |Youll know when to change!!   |
E|-0------------------------|----------------------------------| ````````````````````````````````



    The spiders dancing on the wall.....
e|-0-------2-------0-----------------------|-0---2-----3-3-3----|
b|-0|------3|------0|----------------------|-0---3-----3-3-3----|
g|-0|1x----2|1x----1|1x---0---0---0---0----|-0---2-----5-5-5----|
D|-2|------0|------2|----------------------|-2---0-----5-5-5----|
A|-3---------------2----5-----------0------|-3---------3-3-3----|
E|-----------------0--------8---7----------|--------------------|


    And it is you.....            
e|-0--0----------0-----|-----0----------0-----|--------------|
b|-0----0----------0---|-------0----------0---|-2------------|
g|-1-----------4-----4-|---4---------4------4-|-2------------|
D|-2---------4---------|----------------------|-2--/7-6-----5|
A|-2------/6-----------|-4---------2----------|-0-------0-4--|
E|-0-------------------|----------------------|--------------|



e|-3----3-----0-------------|-3----3------0------------------|
b|-3----3-----0-------3-----|-3----3------0------------------|
g|-0----2-----1-----0---0---|-0----2------1------------------|
D|-0----2-----2---4-------4-|-0----2------2--/7-6-----5------|
A|-2----0-----2-------------|-2----0------2-------0-4--------|
E|-3----------0-------------|-3---------0-0------------------|


   I wish to god that i could sleep again......
e|-0----------|--------------0---------|--------------|
b|---0--------|--0---0---0-----0-------|--0-----------|
g|-----2------|----4---4---------4-----|----2---------|
D|-------3--3-|--------------------5\3-|------3-------|
A|------------|------------------------|--------------|
E|------------|--------------------3\1-|--------------|



e|--0-------0----------|----------------|
b|----0-----0----------|----------------|
g|------4---4----------|--4---4---4-----|
D|--------5-5----------|----------------|
A|---------------------|----------------|
E|---------------------|----------------|


 Solo gitar:   
e|-----------------------------------|
b|1-1-1-9--7--10--9\1--3--1--0--3/9--| |Thru this solo
g|-----------------------------------| |try to vibrate all
D|-----------------------------------| |the time to make it sond more cool.....
A|-----------------------------------|
E|-----------------------------------|


e|--------------------------------------|
b|-10--10/12--10--9--9/17--17\5--8-7--5-|
g|--------------------------------------|
D|--------------------------------------|
A|--------------------------------------|
E|--------------------------------------|

e|-----------------------------|
b|--4--3--2--1--3--1--0--3/9---|
g|-----------------------------|
D|-----------------------------|
A|-----------------------------|
E|-----------------------------|

e|----------------|
b|-5--8--7--5--5--|
g|----------------|
D|----------------|
A|----------------|
E|----------------|

  Now you go back an play the part that he sing 
  in the begunning....and play the tabs under here in the end off the song...


  In the end of the song pla this:
e|-0-------------|--------0----------0---|---------0-------------0|-------------|
b|-0-------------|----------0--------0---|-------0---0-----------0|----------0--| | Im not sure about
g|-1-------------|------------0------2---|---0h1-------1-------2--|-------0-----| | this ending is right, but
D|-2-----------2-|-----4-----------2-----|-------------------2----|-----4-------| | i think so?!?!? plz tell me
A|-2--2/4--4-4---|-4/5-----------4-----2-|---------------3/4------|-4/5---------| | if tis rong!!!
E|-0-------------|-----------------------|-0----------------------|-------------|


Realy cool song to play...took me a while to figure all this *** but i think its right!!
Hope you enjoy playing it!!!  
            
Hard to play? Try these video lessons and learn fast. | Correct




comments powered by Disqus
↑ Back to top | Tablatures and chords are parodies/interpretations of the original songs. You may use it for private study, scholarship, research or language learning purposes only